>
 >
Cocktails

Cocktails Guitar Tabs

Rancid - Cocktails chords, tabs, tablatures, lyrics

Guitar lessons | Add/correct | Request | Top 50 tabs Artists:  A B C D E F G H I J K L M N O P Q R S T U V W X Y Z 0-9

Cocktails Guitar Tabs – Rancid

CD, Sheet music, Poster

Do you like Cocktails? Share with your friends now
Bass TabsBass Tabs v2Bass Tabs v3Bass Tabs v4Tabs

COCKTAILS
As recorded by Rancid
(From the 1998 Album LIFE WON'T WAIT)

        

Words and Music by Tim Armstrong, Lars Frederiksen, Matt Freeman, Brett Reed

Gtr I (E A D G B E) - 'Clean 1'
Gtr II (E A D G B E) - 'Clean 2'
Gtr III (E A D G B E) - 'Harmonica'
Gtr IV (E A D G B E) - 'Overdriven'
Gtr V (E A D G B E) - 'Church Organ'

 Intro
  Q=163
  G                    Am
 4/4
  Gtrs I, II
  PM---------------------------------------
  E  E  E E  E E E E     E  E E E E E E E
|----3--x-3----3-x-3-|------5-x-5---5-x-5-|
|----3--x-3----3-x-3-|------5-x-5---5-x-5-|
|----4--x-4----4-x-4-|------5-x-5---5-x-5-|
|----5--x-5----5-x-5-|------7-x-7---7-x-7-|
|--------------------|--------------------|
|--------------------|--------------------|
|
| Gtr III
| E  E  Q    H          +W
|---12-13---10-------|-(10)---------------|
|--------------------|--------------------|
|--------------------|--------------------|
|--------------------|--------------------|
|--------------------|--------------------|
|--------------------|--------------------|


  C/G                   G
 -----------------------------------------------------|
   E E  E E E E  E  E    E  E       E     E  E E   E  E
|----3--x-3---3--x--3-|-----3-------x-----3----3---x--3--|
|----5--x-5---5--x--5-|-----3-------x-----3----3---x--3--|
|----5--x-5---5--x--5-|-----4-------x-----4----4---x--4--|
|----5--x-5---5--x--5-|-----5-------x-----5----5---x--5--|
|---------------------|----------------------------------|
|---------------------|----------------------------------|
|
|  Q    H        E  E    E  S   S   S  S  E  Q    +Q
|-13---17-------13-17-|-15-13----------------------------|
|---------------------|-------(15)-13-15-13-15---(15)----|
|---------------------|----------------------------------|
|---------------------|----------------------------------|
|---------------------|----------------------------------|
|---------------------|----------------------------------|


  G                     Am
  PM-------------------------------------------
  E  E  E  E  E E E E    E  E E  E   E  E E E
|----3--x--3----3-x-3-|-----5-x--5------5-x-5-|
|----3--x--3----3-x-3-|-----5-x--5------5-x-5-|
|----4--x--4----4-x-4-|-----5-x--5------5-x-5-|
|----5--x--5----5-x-5-|-----7-x--7------7-x-7-|
|---------------------|-----------------------|
|---------------------|-----------------------|
|
| E  e  e  e  H          E  Q    E  +H
|---------------------|----12---13-(13)-------|
|---15-12----12-------|-15--------------------|
|---------12----------|-----------------------|
|---------------------|-----------------------|
|---------------------|-----------------------|
|---------------------|-----------------------|


  C/G                    G
 -------------------------------------------|
   E  E E  E  E E  E E     E E E E   E  E E E
|-----3-x--3----3--x-3-|-----3-x-3------3-x-3-|
|-----5-x--5----5--x-5-|-----3-x-3------3-x-3-|
|-----5-x--5----5--x-5-|-----4-x-4------4-x-4-|
|-----5-x--5----5--x-5-|-----5-x-5------5-x-5-|
|----------------------|----------------------|
|----------------------|----------------------|
|
|                                    >
|  E  Q    E  Q    Q       H        +H
|-17-15---17-13---12---|-/10-------(10)-------|
|----------------------|----------------------|
|----------------------|----------------------|
|----------------------|----------------------|
|----------------------|----------------------|
|----------------------|----------------------|


   Verse
    $
    $$
    G                 Am                C/G               G
    PM------------------------------------------------------------------|
    E E E E E E E E   E E E E E E E E   E E E E E E E E   E E E E E E E E
||----3-x-3---3-x-3-|---5-x-5---5-x-5-|---3-x-3---3-x-3-|---3-x-3---3-x-3---||
||o---3-x-3---3-x-3-|---5-x-5---5-x-5-|---5-x-5---5-x-5-|---3-x-3---3-x-3--o||
||----4-x-4---4-x-4-|---5-x-5---5-x-5-|---5-x-5---5-x-5-|---4-x-4---4-x-4---||
||----5-x-5---5-x-5-|---7-x-7---7-x-7-|---5-x-5---5-x-5-|---5-x-5---5-x-5---||
||o-----------------|-----------------|-----------------|------------------o||
||------------------|-----------------|-----------------|-------------------||


  G                  Am                C/G               G
  PM-------------------------------------------------------------------|
  E  E E E E E E E   E E E E E E E E   E E E E E E E E   E E E E E E E E
|----3-x-3---3-x-3-|---5-x-5---5-x-5-|---3-x-3---3-x-3-|---3-x-3---3-x-3-|
|----3-x-3---3-x-3-|---5-x-5---5-x-5-|---5-x-5---5-x-5-|---3-x-3---3-x-3-|
|----4-x-4---4-x-4-|---5-x-5---5-x-5-|---5-x-5---5-x-5-|---4-x-4---4-x-4-|
|----5-x-5---5-x-5-|---7-x-7---7-x-7-|---5-x-5---5-x-5-|---5-x-5---5-x-5-|
|------------------|-----------------|-----------------|-----------------|
|------------------|-----------------|-----------------|-----------------|
|
| Gtr III
| Q.     E E E E E   E E Q   H         Q   E E E E E E   E E Q   H
|--------3-6s7s6s7s|=6s7-3-----------|-3-----3-6s7s6s7s|=6s7-3-----------|
|------------------|-----------------|-----------------|-----------------|
|------------------|-----------------|-----------------|-----------------|
|------------------|-----------------|-----------------|-----------------|
|------------------|-----------------|-----------------|-----------------|
|------------------|-----------------|-----------------|-----------------|


                                             To Coda      To Dbl. Coda
  G                 Am                C/G               G
  PM------------------------------------------------------------------|
  E E E E E E E E   E E E E E E E E   E E E E E E E E   E E E E E E E E
|---3-x-3---3-x-3-|---5-x-5---5-x-5-|---3-x-3---3-x-3-|---3-x-3---3-x-3-|
|---3-x-3---3-x-3-|---5-x-5---5-x-5-|---5-x-5---5-x-5-|---3-x-3---3-x-3-|
|---4-x-4---4-x-4-|---5-x-5---5-x-5-|---5-x-5---5-x-5-|---4-x-4---4-x-4-|
|---5-x-5---5-x-5-|---7-x-7---7-x-7-|---5-x-5---5-x-5-|---5-x-5---5-x-5-|
|-----------------|-----------------|-----------------|-----------------|
|-----------------|-----------------|-----------------|-----------------|
|
| Q   E E E E E E   E E Q   H         Q   E E E E E E   E E Q   H
|-3-----3-6s7s6s7s|=6s7-3-----------|-3-----3-6s7s6s7s|=6s7-3-----------|
|-----------------|-----------------|-----------------|-----------------|
|-----------------|-----------------|-----------------|-----------------|
|-----------------|-----------------|-----------------|-----------------|
|-----------------|-----------------|-----------------|-----------------|
|-----------------|-----------------|-----------------|-----------------|


 Pre-Verse
  G                    Am
  PM--------------------------------------------
  E  E E  E  E E E E    E   E  E  E E E E   E
|----3-x--3----3-x-3-|------5--x--5---5-x---5--|
|----3-x--3----3-x-3-|------5--x--5---5-x---5--|
|----4-x--4----4-x-4-|------5--x--5---5-x---5--|
|----5-x--5----5-x-5-|------7--x--7---7-x---7--|
|--------------------|-------------------------|
|--------------------|-------------------------|
|
| Q.      E  H          E   Q     H        +E
|--------12-13-------|-10--12----13-------(13)-|
|--------------------|-12-(12)-----------------|
|--------------------|-------------------------|
|--------------------|-------------------------|
|--------------------|-------------------------|
|--------------------|-------------------------|


  C/G                         G
 ----------------------------------------------|
   E  E E   E     E  E  E E     E E E E  E E E E
|-----3-x---3--------3--x-3-|-----3-x-3----3-x-3--|
|-----5-x---5--------5--x-5-|-----3-x-3----3-x-3--|
|-----5-x---5--------5--x-5-|-----4-x-4----4-x-4--|
|-----5-x---5--------5--x-5-|-----5-x-5----5-x-5--|
|---------------------------|---------------------|
|---------------------------|---------------------|
|
|  E  Q    +S  S  E  Q.         Q   Q    Q   Q
|-17-15---(15)---13-12------|-/10---8---/7--------|
|---------------------------|----------------8----|
|---------------------------|---------------------|
|---------------------------|---------------------|
|---------------------------|---------------------|
|---------------------------|---------------------|


  G                     Am
  PM---------------------------------------------
  E E  E E   E  E E E    E  E E E E  E     E  E
|---3--x-3------3-x-3-|-----5-x-5----5-----x--5-|
|---3--x-3------3-x-3-|-----5-x-5----5-----x--5-|
|---4--x-4------4-x-4-|-----5-x-5----5-----x--5-|
|---5--x-5------5-x-5-|-----7-x-7----7-----x--7-|
|---------------------|-------------------------|
|---------------------|-------------------------|
|
| E E  E E   E  E Q      E  H        S  E.    E
|-----10-8-/10-10-8---|-13-17-------12S13----12-|
|---8-----------------|-------------------------|
|---------------------|-------------------------|
|---------------------|-------------------------|
|---------------------|-------------------------|
|---------------------|-------------------------|


                                  D.S. al Coda
  C/G                         G
 ---------------------------------------------|
   E   E  E E E  E     E  E     E E E E E E E E
|------3--x-3----3-----x--3-|-----3-x-3---3-x-3-|
|------5--x-5----5-----x--5-|-----3-x-3---3-x-3-|
|------5--x-5----5-----x--5-|-----4-x-4---4-x-4-|
|------5--x-5----5-----x--5-|-----5-x-5---5-x-5-|
|---------------------------|-------------------|
|---------------------------|-------------------|
|
|                               >
|  E  +H         S  E.    E     W
|-13-(13)-------------------|-------------------|
|---------------13S15----13-|-/15---------------|
|---------------------------|-------------------|
|---------------------------|-------------------|
|---------------------------|-------------------|
|---------------------------|-------------------|


                    Chorus
  &
  G                  Am
  PM------------------------------------------------------
  E E E E E E E E    E E E E E E E E    E  E E E E E E E
|---3-x-3---3-x-3-||---5-x-5---5-x-5-|-----5-x-5---5-x-5-|
|---3-x-3---3-x-3-||---5-x-5---5-x-5-|-----5-x-5---5-x-5-|
|---4-x-4---4-x-4-||---5-x-5---5-x-5-|-----5-x-5---5-x-5-|
|---5-x-5---5-x-5-||---7-x-7---7-x-7-|-----7-x-7---7-x-7-|
|-----------------||-----------------|-------------------|
|-----------------||-----------------|-------------------|
|
|                 Gtr V
| E E Q   H          W                  W
|-6s7-3-----------||-----------------|-------------------|
|-----------------||-----------------|-------------------|
|-----------------||-----------------|-------------------|
|-----------------||-----------------|-------------------|
|-----------------||-----------------|-------------------|
|-----------------||-----------------|-------------------|
|
| Gtr IV
| H.          E E    W                 +H.           E E
|-----------------||-----------------|-------------------|
|-----------------||-----------------|-------------------|
|-----------------||-----------------|-------------------|
|-------------7-7-||-7---------------|-(7)-----------5-5-|
|-------------7-7-||-7---------------|-(7)-----------5-5-|
|-------------5-5-||-5---------------|-(5)-----------3-3-|


  G
 ----------------------------------------------|
  E   E E E E  E  E E    E  E E E   E  E     E  E
|-----3-x-3----3--x-3-|-----3-x-3------3-----x--3---|
|-----3-x-3----3--x-3-|-----3-x-3------3-----x--3---|
|-----4-x-4----4--x-4-|-----4-x-4------4-----x--4---|
|-----5-x-5----5--x-5-|-----5-x-5------5-----x--5---|
|---------------------|-----------------------------|
|---------------------|-----------------------------|
|
| E   H        Q.        H          E.    E.    E
|---/15-------12------|-----------------------------|
|---------------------|-15--------------------------|
|---------------------|-----------/16----14----12---|
|---------------------|-----------------------------|
|---------------------|-----------------------------|
|---------------------|-----------------------------|
|
| W                     +H.                  E  E
|---------------------|-----------------------------|
|---------------------|-----------------------------|
|---------------------|-----------------------------|
|-5-------------------|-(5)------------------7--7---|
|-5-------------------|-(5)------------------7--7---|
|-3-------------------|-(3)------------------5--5---|


  Am
    PM-------------------------------------
    E  E E E E E E E     E  E E E E E E E
|------5-x-5---5-x-5-|------5-x-5---5-x-5-|
|------5-x-5---5-x-5-|------5-x-5---5-x-5-|
|------5-x-5---5-x-5-|------5-x-5---5-x-5-|
|------7-x-7---7-x-7-|------7-x-7---7-x-7-|
|--------------------|--------------------|
|--------------------|--------------------|
|
|   W                   +W
|-(17)---------------|-(17)---------------|
|--------------------|--------------------|
|--------------------|--------------------|
|--------------------|--------------------|
|--------------------|--------------------|
|--------------------|--------------------|
|
|   W                   +H.           E E
|--------------------|--------------------|
|--------------------|--------------------|
|--------------------|--------------------|
|---7----------------|--(7)-----------5-5-|
|---7----------------|--(7)-----------5-5-|
|---5----------------|--(5)-----------3-3-|


  G
 ---------------------------------------------------|
    E  E E E E E  E  E     E   E      E  E E E   E   E
|------3-x-3---3--x--3-|-------3------x--3---3---x---3--|
|------3-x-3---3--x--3-|-------3------x--3---3---x---3--|
|------4-x-4---4--x--4-|-------4------x--4---4---x---4--|
|------5-x-5---5--x--5-|-------5------x--5---5---x---5--|
|----------------------|--------------------------------|
|----------------------|--------------------------------|
|
|                              |3-|
|  +H.            E  E    +E   S  E  +H         +E   E
|-(17)-----------10-12-|-(12)-10-12-(12)-------(12)-10--|
|----------------------|------10------------------------|
|----------------------|--------------------------------|
|----------------------|--------------------------------|
|----------------------|--------------------------------|
|----------------------|--------------------------------|
|
|   W                     +H.                    E   E
|----------------------|--------------------------------|
|----------------------|--------------------------------|
|----------------------|--------------------------------|
|---5------------------|--(5)--------------------7---7--|
|---5------------------|--(5)--------------------7---7--|
|---3------------------|--(3)--------------------5---5--|


  Am                                    G
  PM------------------------------------------------------------------------|
  E E E E E E E E    E  E E E E E E E    E E E E E E E E     E  E E E E E E E
|---5-x-5---5-x-5-|-----5-x-5---5-x-5-|----3-x-3---3-x-3-|------3-x-3---3-x-3-|
|---5-x-5---5-x-5-|-----5-x-5---5-x-5-|----3-x-3---3-x-3-|------3-x-3---3-x-3-|
|---5-x-5---5-x-5-|-----5-x-5---5-x-5-|----4-x-4---4-x-4-|------4-x-4---4-x-4-|
|---7-x-7---7-x-7-|-----7-x-7---7-x-7-|----5-x-5---5-x-5-|------5-x-5---5-x-5-|
|-----------------|-------------------|------------------|--------------------|
|-----------------|-------------------|------------------|--------------------|
|
| W                 +W                   W                  +W
|-8---------------|-(8)---------------|-10---------------|-(10)---------------|
|-----------------|-------------------|------------------|--------------------|
|-----------------|-------------------|------------------|--------------------|
|-----------------|-------------------|------------------|--------------------|
|-----------------|-------------------|------------------|--------------------|
|-----------------|-------------------|------------------|--------------------|
|
| W                 +H.           E E    W                  +H.           E E
|-----------------|-------------------|------------------|--------------------|
|-----------------|-------------------|------------------|--------------------|
|-----------------|-------------------|------------------|----------------5-5-|
|-7---------------|-(7)-----------5-5-|--5---------------|--(5)-----------5-5-|
|-7---------------|-(7)-----------5-5-|--5---------------|--(5)-----------3-3-|
|-5---------------|-(5)-----------3-3-|--3---------------|--(3)---------------|


    C/G               D                  G
    PM----------------------------------------------------|
    E E E E E E E E    E E E E E E E E     E  E E E E E E E
||----3-x-3---3-x-3-|----2-x-2---2-x-2-|------3-x-3---3-x-3-|
||o---5-x-5---5-x-5-|----3-x-3---3-x-3-|------3-x-3---3-x-3-|
||----5-x-5---5-x-5-|----2-x-2---2-x-2-|------4-x-4---4-x-4-|
||----5-x-5---5-x-5-|----0-x-0---0-x-0-|------5-x-5---5-x-5-|
||o-----------------|------------------|--------------------|
||------------------|------------------|--------------------|
|
|   W                  W                  +W
||--8---------------|-10---------------|-(10)---------------|
||o-----------------|------------------|--------------------|
||------------------|------------------|--------------------|
||------------------|------------------|--------------------|
||o-----------------|------------------|--------------------|
||------------------|------------------|--------------------|
|
|   W                  W                   W
||------------------|------------------|--------------------|
||o-----------------|------------------|--------------------|
||--5---------------|--7---------------|--------------------|
||--5---------------|--7---------------|---5----------------|
||o-3---------------|--5---------------|---5----------------|
||------------------|------------------|---3----------------|


  1.                    2.
            D.S.S. al Dbl. Coda
    PM-------------------|
    E  E E E E E E E       Q   H.
|------3-x-3---3-x-3--||---3---------|
|------3-x-3---3-x-3-o||---3---------|
|------4-x-4---4-x-4--||---4---------|
|------5-x-5---5-x-5--||---5---------|
|--------------------o||-------------|
|---------------------||-------------|
|
|  +W                     +Q   H.
|-(10)----------------||-(10)--------|
|--------------------o||-------------|
|---------------------||-------------|
|---------------------||-------------|
|--------------------o||-------------|
|---------------------||-------------|
|
|   W                      Q   H.
|---------------------||-------------|
|--------------------o||-------------|
|---------------------||-------------|
|---5-----------------||---5---------|
|---5----------------o||---5---------|
|---3-----------------||---3---------|


 Pre-Verse
  &&
  G                   Am
  PM---------------------------------------------
  E E E E E E   E E     E E E E  E      E  E  E
|---3-x-3---3---x-3-|-----5-x-5---------5--x--5-|
|---3-x-3---3---x-3-|-----5-x-5---------5--x--5-|
|---4-x-4---4---x-4-|-----5-x-5---------5--x--5-|
|---5-x-5---5---x-5-|-----7-x-7---------7--x--7-|
|-------------------|---------------------------|
|-------------------|---------------------------|
|
| Gtr III
| H       E E   E E     Q   Q   +s   E.    E  E
|-----------8-/10-8-|-/10---8---(8)-10----13-12-|
|--------------10---|---------------------------|
|-------------------|---------------------------|
|-------------------|---------------------------|
|-------------------|---------------------------|
|-------------------|---------------------------|


  C/G                      G
 -----------------------------------------|
   E E E E   E   E  E  E    E E E E E E E E
|----3-x-3-------3--x--3-|----3-x-3---3-x-3--|
|----5-x-5-------5--x--5-|----3-x-3---3-x-3--|
|----5-x-5-------5--x--5-|----4-x-4---4-x-4--|
|----5-x-5-------5--x--5-|----5-x-5---5-x-5--|
|------------------------|-------------------|
|------------------------|-------------------|
|
|  H        +E   E  E  E    W
|-13-------(13)-10-13--8-|-10----------------|
|---------------------10-|-------------------|
|------------------------|-------------------|
|------------------------|-------------------|
|------------------------|-------------------|
|------------------------|-------------------|


  G                         Am
    PM--------------------------------------------------
    E  E   E  E E  E E  E     E E E E   E      E  E  E
|------3---x--3----3-x--3-|-----5-x-5----------5--x--5-|
|------3---x--3----3-x--3-|-----5-x-5----------5--x--5-|
|------4---x--4----4-x--4-|-----5-x-5----------5--x--5-|
|------5---x--5----5-x--5-|-----7-x-7----------7--x--7-|
|-------------------------|----------------------------|
|-------------------------|----------------------------|
|
|  +Q      E  Q    Q    E     H        +E   a  E  E  E
|-(10)---/13-12---13---15-|-/17-------(17)-12s15-13-12-|
|-------------------------|----------------------------|
|-------------------------|----------------------------|
|-------------------------|----------------------------|
|-------------------------|----------------------------|
|-------------------------|----------------------------|


  C/G                          G
 ---------------------------------------------------|
   E E     E  E  E  E  E   E     E   E E   E E  E E  E
|----3-----x--3-----3--x---3-|-------3-x---3----3-x--3-|
|----5-----x--5-----5--x---5-|-------3-x---3----3-x--3-|
|----5-----x--5-----5--x---5-|-------4-x---4----4-x--4-|
|----5-----x--5-----5--x---5-|-------5-x---5----5-x--5-|
|----------------------------|-------------------------|
|----------------------------|-------------------------|
|
|  Q    a  E  E  E  E  E   E    +E   Q     Q    E E  E
|-13---10s13-10----10--------|-------------------------|
|------10-------13----13-/12-|-(12)------/12-----------|
|----------------------------|------12---------12-9-12-|
|----------------------------|-------------------------|
|----------------------------|-------------------------|
|----------------------------|-------------------------|


   Verse
    G                 Am                C/G               G
    PM------------------------------------------------------------------|
    E E E E E E E E   E E E E E E E E   E E E E E E E E   E E E E E E E E
||----3-x-3---3-x-3-|---5-x-5---5-x-5-|---3-x-3---3-x-3-|---3-x-3---3-x-3---||
||o---3-x-3---3-x-3-|---5-x-5---5-x-5-|---5-x-5---5-x-5-|---3-x-3---3-x-3--o||
||----4-x-4---4-x-4-|---5-x-5---5-x-5-|---5-x-5---5-x-5-|---4-x-4---4-x-4---||
||----5-x-5---5-x-5-|---7-x-7---7-x-7-|---5-x-5---5-x-5-|---5-x-5---5-x-5---||
||o-----------------|-----------------|-----------------|------------------o||
||------------------|-----------------|-----------------|-------------------||


  G                  Am                C/G               G
  PM-------------------------------------------------------------------|
  E  E E E E E E E   E E E E E E E E   E E E E E E E E   E E E E E E E E
|----3-x-3---3-x-3-|---5-x-5---5-x-5-|---3-x-3---3-x-3-|---3-x-3---3-x-3-|
|----3-x-3---3-x-3-|---5-x-5---5-x-5-|---5-x-5---5-x-5-|---3-x-3---3-x-3-|
|----4-x-4---4-x-4-|---5-x-5---5-x-5-|---5-x-5---5-x-5-|---4-x-4---4-x-4-|
|----5-x-5---5-x-5-|---7-x-7---7-x-7-|---5-x-5---5-x-5-|---5-x-5---5-x-5-|
|------------------|-----------------|-----------------|-----------------|
|------------------|-----------------|-----------------|-----------------|
|
| Gtr III
| Q.     E E E E E   E E Q   H         Q   E E E E E E   E E Q   H
|--------3-6s7s6s7s|=6s7-3-----------|-3-----3-6s7s6s7s|=6s7-3-----------|
|------------------|-----------------|-----------------|-----------------|
|------------------|-----------------|-----------------|-----------------|
|------------------|-----------------|-----------------|-----------------|
|------------------|-----------------|-----------------|-----------------|
|------------------|-----------------|-----------------|-----------------|


  G                 Am                C/G               G
  PM------------------------------------------------------------------|
  E E E E E E E E   E E E E E E E E   E E E E E E E E   E E E E E E E E
|---3-x-3---3-x-3-|---5-x-5---5-x-5-|---3-x-3---3-x-3-|---3-x-3---3-x-3-|
|---3-x-3---3-x-3-|---5-x-5---5-x-5-|---5-x-5---5-x-5-|---3-x-3---3-x-3-|
|---4-x-4---4-x-4-|---5-x-5---5-x-5-|---5-x-5---5-x-5-|---4-x-4---4-x-4-|
|---5-x-5---5-x-5-|---7-x-7---7-x-7-|---5-x-5---5-x-5-|---5-x-5---5-x-5-|
|-----------------|-----------------|-----------------|-----------------|
|-----------------|-----------------|-----------------|-----------------|
|
| Q   E E E E E E   E E Q   H         Q   E E E E E E   E E Q   H
|-3-----3-6s7s6s7s|=6s7-3-----------|-3-----3-6s7s6s7s|=6s7-3-----------|
|-----------------|-----------------|-----------------|-----------------|
|-----------------|-----------------|-----------------|-----------------|
|-----------------|-----------------|-----------------|-----------------|
|-----------------|-----------------|-----------------|-----------------|
|-----------------|-----------------|-----------------|-----------------|
|
| Gtr IV
| W                 W                 W                 H.          E E
|-----------------|-----------------|-----------------|-----------------|
|-----------------|-----------------|-----------------|-----------------|
|-----------------|-----------------|-----------------|-----------------|
|-----------------|-----------------|-----------------|-------------7-7-|
|-----------------|-----------------|-----------------|-------------7-7-|
|-----------------|-----------------|-----------------|-------------5-5-|


 Out-Chorus
  Am
  PM-----------------------------------
  E E E E E E E E    E  E E E E E E E
|---5-x-5---5-x-5-|-----5-x-5---5-x-5-|
|---5-x-5---5-x-5-|-----5-x-5---5-x-5-|
|---5-x-5---5-x-5-|-----5-x-5---5-x-5-|
|---7-x-7---7-x-7-|-----7-x-7---7-x-7-|
|-----------------|-------------------|
|-----------------|-------------------|
|
| Gtr V
| W                  W
|-----------------|-------------------|
|-----------------|-------------------|
|-----------------|-------------------|
|-----------------|-------------------|
|-----------------|-------------------|
|-----------------|-------------------|
|
| W                 +H.           E E
|-----------------|-------------------|
|-----------------|-------------------|
|-----------------|-------------------|
|-7---------------|-(7)-----------5-5-|
|-7---------------|-(7)-----------5-5-|
|-5---------------|-(5)-----------3-3-|


  G
 ----------------------------------------------|
  E   E E E E  E  E E    E  E E E   E  E     E  E
|-----3-x-3----3--x-3-|-----3-x-3------3-----x--3--|
|-----3-x-3----3--x-3-|-----3-x-3------3-----x--3--|
|-----4-x-4----4--x-4-|-----4-x-4------4-----x--4--|
|-----5-x-5----5--x-5-|-----5-x-5------5-----x--5--|
|---------------------|----------------------------|
|---------------------|----------------------------|
|
| E   H        Q.        H          E.    E.    E
|---/15-------12------|----------------------------|
|---------------------|-15-------------------------|
|---------------------|-----------/16----14----12--|
|---------------------|----------------------------|
|---------------------|----------------------------|
|---------------------|----------------------------|
|
| W                     +H.                  E  E
|---------------------|----------------------------|
|---------------------|----------------------------|
|---------------------|----------------------------|
|-5-------------------|-(5)------------------7--7--|
|-5-------------------|-(5)------------------7--7--|
|-3-------------------|-(3)------------------5--5--|


  Am
    PM-------------------------------------
    E  E E E E E E E     E  E E E E E E E
|------5-x-5---5-x-5-|------5-x-5---5-x-5-|
|------5-x-5---5-x-5-|------5-x-5---5-x-5-|
|------5-x-5---5-x-5-|------5-x-5---5-x-5-|
|------7-x-7---7-x-7-|------7-x-7---7-x-7-|
|--------------------|--------------------|
|--------------------|--------------------|
|
|   W                   +W
|-(17)---------------|-(17)---------------|
|--------------------|--------------------|
|--------------------|--------------------|
|--------------------|--------------------|
|--------------------|--------------------|
|--------------------|--------------------|
|
|   W                   +H.           E E
|--------------------|--------------------|
|--------------------|--------------------|
|--------------------|--------------------|
|---7----------------|--(7)-----------5-5-|
|---7----------------|--(7)-----------5-5-|
|---5----------------|--(5)-----------3-3-|


  G
 ---------------------------------------------------|
    E  E E E E E  E  E     E   E      E  E E E   E   E
|------3-x-3---3--x--3-|-------3------x--3---3---x---3--|
|------3-x-3---3--x--3-|-------3------x--3---3---x---3--|
|------4-x-4---4--x--4-|-------4------x--4---4---x---4--|
|------5-x-5---5--x--5-|-------5------x--5---5---x---5--|
|----------------------|--------------------------------|
|----------------------|--------------------------------|
|
|                              |3-|
|  +H.            E  E    +E   S  E  +H         +E   E
|-(17)-----------10-12-|-(12)-10-12-(12)-------(12)-10--|
|----------------------|------10------------------------|
|----------------------|--------------------------------|
|----------------------|--------------------------------|
|----------------------|--------------------------------|
|----------------------|--------------------------------|
|
|   W                     +H.                    E   E
|----------------------|--------------------------------|
|----------------------|--------------------------------|
|----------------------|--------------------------------|
|---5------------------|--(5)--------------------7---7--|
|---5------------------|--(5)--------------------7---7--|
|---3------------------|--(3)--------------------5---5--|


  Am                                    G
  PM------------------------------------------------------------------------|
  E E E E E E E E    E  E E E E E E E    E E E E E E E E     E  E E E E E E E
|---5-x-5---5-x-5-|-----5-x-5---5-x-5-|----3-x-3---3-x-3-|------3-x-3---3-x-3-|
|---5-x-5---5-x-5-|-----5-x-5---5-x-5-|----3-x-3---3-x-3-|------3-x-3---3-x-3-|
|---5-x-5---5-x-5-|-----5-x-5---5-x-5-|----4-x-4---4-x-4-|------4-x-4---4-x-4-|
|---7-x-7---7-x-7-|-----7-x-7---7-x-7-|----5-x-5---5-x-5-|------5-x-5---5-x-5-|
|-----------------|-------------------|------------------|--------------------|
|-----------------|-------------------|------------------|--------------------|
|
| W                 +W                   W                  +W
|-8---------------|-(8)---------------|-10---------------|-(10)---------------|
|-----------------|-------------------|------------------|--------------------|
|-----------------|-------------------|------------------|--------------------|
|-----------------|-------------------|------------------|--------------------|
|-----------------|-------------------|------------------|--------------------|
|-----------------|-------------------|------------------|--------------------|
|
| W                 +H.           E E    W                  +H.           E E
|-----------------|-------------------|------------------|--------------------|
|-----------------|-------------------|------------------|--------------------|
|-----------------|-------------------|------------------|----------------5-5-|
|-7---------------|-(7)-----------5-5-|--5---------------|--(5)-----------5-5-|
|-7---------------|-(7)-----------5-5-|--5---------------|--(5)-----------3-3-|
|-5---------------|-(5)-----------3-3-|--3---------------|--(3)---------------|


  C/G               D                  G
  PM-------------------------------------------------------------------------|
  E E E E E E E E    E E E E E E E E     E  E E E E E E E     E  E E E E E E E
|---3-x-3---3-x-3-|----2-x-2---2-x-2-|------3-x-3---3-x-3-|------3-x-3---3-x-3-|
|---5-x-5---5-x-5-|----3-x-3---3-x-3-|------3-x-3---3-x-3-|------3-x-3---3-x-3-|
|---5-x-5---5-x-5-|----2-x-2---2-x-2-|------4-x-4---4-x-4-|------4-x-4---4-x-4-|
|---5-x-5---5-x-5-|----0-x-0---0-x-0-|------5-x-5---5-x-5-|------5-x-5---5-x-5-|
|-----------------|------------------|--------------------|--------------------|
|-----------------|------------------|--------------------|--------------------|
|
| W                  W                  +W                   +W
|-8---------------|-10---------------|-(10)---------------|-(10)---------------|
|-----------------|------------------|--------------------|--------------------|
|-----------------|------------------|--------------------|--------------------|
|-----------------|------------------|--------------------|--------------------|
|-----------------|------------------|--------------------|--------------------|
|-----------------|------------------|--------------------|--------------------|
|
| W                  W                   W                   +W
|-----------------|------------------|--------------------|--------------------|
|-----------------|------------------|--------------------|--------------------|
|-5---------------|--7---------------|--------------------|--------------------|
|-5---------------|--7---------------|---5----------------|--(5)---------------|
|-3---------------|--5---------------|---5----------------|--(5)---------------|
|-----------------|------------------|---3----------------|--(3)---------------|


  C/G                      D
  Gtr IV
  W                          W
  |                          |
  /                          /

  PM------------------------------------------
  E E E E E   E  E     E     E E E E E E E E
|---3-x-3-----3--x-----3-|-----2-x-2---2-x-2-|
|---5-x-5-----5--x-----5-|-----3-x-3---3-x-3-|
|---5-x-5-----5--x-----5-|-----2-x-2---2-x-2-|
|---5-x-5-----5--x-----5-|-----0-x-0---0-x-0-|
|------------------------|-------------------|
|------------------------|-------------------|
|
| W                          W
|-8----------------------|--10---------------|
|------------------------|-------------------|
|------------------------|-------------------|
|------------------------|-------------------|
|------------------------|-------------------|
|------------------------|-------------------|
|
| Gtr III
| H       E   E.    E.       W
|-----------(10)---12----|-/13---------------|
|------------------------|-------------------|
|------------------------|-------------------|
|------------------------|-------------------|
|------------------------|-------------------|
|------------------------|-------------------|


  G
    W                      +W
    |                       |
    /                       /

 ------------------------------------------|
    E  E   E  E E E E E     E  E E E E E E E
|------3---x--3---3-x-3-|------3-x-3---3-x-3--|
|------3---x--3---3-x-3-|------3-x-3---3-x-3--|
|------4---x--4---4-x-4-|------4-x-4---4-x-4--|
|------5---x--5---5-x-5-|------5-x-5---5-x-5--|
|-----------------------|---------------------|
|-----------------------|---------------------|
|
|  +W                      +W
|-(10)------------------|-(10)----------------|
|-----------------------|---------------------|
|-----------------------|---------------------|
|-----------------------|---------------------|
|-----------------------|---------------------|
|-----------------------|---------------------|
|
|   E  E   H.              +W
|--10--8-/10------------|-(10)----------------|
|-----------------------|---------------------|
|-----------------------|---------------------|
|-----------------------|---------------------|
|-----------------------|---------------------|
|-----------------------|---------------------|


  C/G                          D
    W                            W
    |                            |
    /                            /

    PM-------------------------------------------------
    E  E E E   E   E   E   E     E   E E E E E E   E
|------3-x-3-------3---x---3-|-------2-x-2---2-x---2--|
|------5-x-5-------5---x---5-|-------3-x-3---3-x---3--|
|------5-x-5-------5---x---5-|-------2-x-2---2-x---2--|
|------5-x-5-------5---x---5-|-------0-x-0---0-x---0--|
|----------------------------|------------------------|
|----------------------------|------------------------|
|
|   W                            W
|---8------------------------|--10--------------------|
|----------------------------|------------------------|
|----------------------------|------------------------|
|----------------------------|------------------------|
|----------------------------|------------------------|
|----------------------------|------------------------|
|
|              \1______/0______________________________
|  +H         +Q      +Q        +H..               E
|-(10)-------(10)----(10)----|-(10)--------------(11)-|
|----------------------------|------------------------|
|----------------------------|------------------------|
|----------------------------|------------------------|
|----------------------------|------------------------|
|----------------------------|------------------------|


  G
    W                   +W
    |                    |
    /                    /

 ---------------------------------------------|
    E  E E E E E E E     E   E  E E   E  E  E E
|------3-x-3---3-x-3-|-------3--x-3------3--x-3-|
|------3-x-3---3-x-3-|-------3--x-3------3--x-3-|
|------4-x-4---4-x-4-|-------4--x-4------4--x-4-|
|------5-x-5---5-x-5-|-------5--x-5------5--x-5-|
|--------------------|--------------------------|
|--------------------|--------------------------|
|
|  +W                   +W
|-(10)---------------|-(10)---------------------|
|--------------------|--------------------------|
|--------------------|--------------------------|
|--------------------|--------------------------|
|--------------------|--------------------------|
|--------------------|--------------------------|
|
|   W                    E   Q.       E  Q.
|--12----------------|--17--15------/13-12------|
|--------------------|--------------------------|
|--------------------|--------------------------|
|--------------------|--------------------------|
|--------------------|--------------------------|
|--------------------|--------------------------|


  C/G                         D
    W                           W
    |                           |
    /                           /

    PM-------------------------------------------
    E   E E E E E E   E         E E E E E E E E
|-------3-x-3---3-x---3-----|-----2-x-2---2-x-2-|
|-------5-x-5---5-x---5-----|-----3-x-3---3-x-3-|
|-------5-x-5---5-x---5-----|-----2-x-2---2-x-2-|
|-------5-x-5---5-x---5-----|-----0-x-0---0-x-0-|
|---------------------------|-------------------|
|---------------------------|-------------------|
|
|   W                           W
|---8-----------------------|--10---------------|
|---------------------------|-------------------|
|---------------------------|-------------------|
|---------------------------|-------------------|
|---------------------------|-------------------|
|---------------------------|-------------------|
|
|   H..              +S   S     W
|-/10---------------(10)-13-|-/10---------------|
|---------------------------|-------------------|
|---------------------------|-------------------|
|---------------------------|-------------------|
|---------------------------|-------------------|
|---------------------------|-------------------|


  G
    W                    +Q   H.
    |                     |
    /                     /

 -----------------------|
    E   E E E E E E E     Q   H.
|-------3-x-3---3-x-3-|---3---------*|
|-------3-x-3---3-x-3-|---3---------*|
|-------4-x-4---4-x-4-|---4---------*|
|-------5-x-5---5-x-5-|---5---------*|
|---------------------|-------------*|
|---------------------|-------------*|
|
|  +W                    +Q   H.
|-(10)----------------|-(10)--------*|
|---------------------|-------------*|
|---------------------|-------------*|
|---------------------|-------------*|
|---------------------|-------------*|
|---------------------|-------------*|
|
|                 >
|  +E   E E E Q   Q      +Q   H.
|-(10)-10-7---7-------|-------------*|
|-----------8-----8---|--(8)--------*|
|---------------------|-------------*|
|---------------------|-------------*|
|---------------------|-------------*|
|---------------------|-------------*|



Duration Legend
---------------
W - whole; H - half; Q - quarter; E - 8th; S - 16th; T - 32nd; X - 64th; a - acciaccatura
+ - note tied to previous; . - note dotted; .. - note double dotted
Uncapitalized letters represent notes that are staccato (1/2 duration)
Irregular groupings are notated above the duration line
Duration letters will always appear directly above the note/fret number it represents the
duration for.  Duration letters with no fret number below them represent rests.  Multi-
bar rests are notated in the form Wxn, where n is the number of bars to rest for.  Low
melody durations appear below the staff

Tablature Legend
----------------
 h   - hammer-on
 p   - pull-off
 b   - bend
 pb  - pre-bend
 r   - bend release (if no number after the r, then release immediately)
 /\  - slide into or out of (from/to "nowhere")
 s   - legato slide
 S   - shift slide
 - natural harmonic
[n]  - artificial harmonic
n(n) - tapped harmonic
 ~   - vibrato
 tr  - trill
 T   - tap
 TP  - trem. picking
 PM  - palm muting
\n/  - tremolo bar dip; n = amount to dip
 \n  - tremolo bar down
 n/  - tremolo bar up
/n\  - tremolo bar inverted dip
 =   - hold bend; also acts as connecting device for hammers/pulls
 <> - volume swell (louder/softer)
 x   - on rhythm slash represents muted slash
 o   - on rhythm slash represents single note slash

Misc Legend
-----------
 |  - bar
||  - double bar
||o - repeat start
o|| - repeat end
*|  - double bar (ending)
 :  - bar (freetime)
 $  - Segno
 &  - Coda
Tempo markers -  = BPM(8/16=s8/s16), where s8 = swing 8ths, s16 = swing 16ths





Comments


Popular Rancid tabs & chords
Cocktails 4 Bass Tabs
Corazon De Oro 2 Bass Tabs
Old Friend 2 Bass Tabs
Radio Havana 5 Bass Tabs
The 11th. Hour 2 Bass Tabs
The Way I Feel About You 3 Bass Tabs
Dominoes Fall Chords
Im Not He Only One Tabs
Ruby Soho Tabs
Animosity Ukulele


Song lyrics



↑ Back to top | Tablatures and chords are parodies/interpretations of the original songs. You may use it for private study, scholarship, research or language learning purposes only
© 2014 AZChords.com Contact us | Privacy policy | DMCA | Add/correct tabs | Request tabs | Top 50 tabs