» » »

Brews Bass tabs (ver.2)

Artists:  A B C D E F G H I J K L M N O P Q R S T U V W X Y Z # 

Brews Bass tabs (ver.2)

Rancid
Rating:
0/5 (0 votes)
Tabs too difficult? Try these video lessons and learn fast.
                I would have Tabbed Don't Call me white, but Some one had put a tab already, and it 
like it was accurate so i thought "I'll just skip dont call me white", anyways heres the 
(This is the HARDEST Tab i have ever tabbed out)

Listen to song for rhythm

Chorus
-----------------------|
----------------4-21---|
--------01-22222-------|
-00000-4---------------|

Solo
----------------------------------------------------------------------------|
--------12---------12--16-14-12-----------------12---------12---------------|
-14-1414---14\12/14------------14-12-----14-1414---14\12/14---14-1210-------|
------------------------------------14-12----------------------------1412-9-|

Verse
-----------------------------------------------------|
------------4-44444444-2-222/4---------------4-2-1---|
-2-22222222--------------------2-222/4-------------4-|
---------------------------------------2-22222-------|

Fill
-------------------|
-------------------|
-2-222222-2-222222-|
-------------------|

Bridge
----------------------------------|
------------------------------54--|
-5-55555-------456-7-777777-7---7-|
--------5-555-5-------------------|

Outro
---5-------------|
-5---5-5/7\5-0~~-|
-----------------|
-----------------|

Order is very easy, GOOD LUCK!
            
Tabs too difficult? Try these video lessons and learn fast.


comments powered by Disqus
↑ Back to top | Tablatures and chords are parodies/interpretations of the original songs. You may use it for private study, scholarship, research or language learning purposes only