» » »

Rancid, Blast 'em Bass tabs (ver.1)

Artists:  A B C D E F G H I J K L M N O P Q R S T U V W X Y Z # 

Blast 'em Bass tabs (ver.1)

Rancid Tabs
 Rating:
4/5 (4 votes)
Blast 'em lessons Tabs too difficult? Try these video lessons and learn fast
                -------------------------------------------------------------------------------
-------------------------------------------------------------------------------

Note Duration:
W - whole
H - half
Q - quarter
E - 8th

Tab Legend:
L - tied note
\ -  slide out downwards

have fun
xxSID

Part 1
     Q     Q    H           W                     E  E  E  E  E  E  E  E   
G||----------------------|-------------------||---------------------------|
D||----------------------|-------------------||*--------------------------|
A||----------------------|-------------------||*--5--5--5--5--5--5--5--5--|
E||--5\------------------|-------------------||---------------------------|


  E  E  E  Q    E  E  E   8x   Q    Q    Q    E  E     E  E  Q    Q    Q       
--------------------------||------------------------|------------------------||
--3--3--3----------------*||*-----------------------|-----------------------*||
-----------5----5--5--3--*||*-------5----7----8--9--|--L--9--8----7----5----*||
--------------------------||---7--------------------|------------------------||


     Q    Q    E  E  Q       E  E  E  Q    E  Q     4x
||------------------------|-------------------------||
||*-----------------------|------------------------*||
||*-----------------------|------------------------*||
||---0----0----3--3-------|--5--5-----3----2--3-----||

REPEAT PART 1

Guitar Solo
  Q     Q    H           W                
----------------------|-------------------|
----------------------|-------------------|
----------------------|-------------------|
--5\------------------|-------------------|


     E  E  E  E  E  E  E  E     E  E  E  Q    E  E  E   4x
||---------------------------|--------------------------||
||*--------------------------|--3--3--3----------------*||
||*--5--5--5--5--5--5--5--5--|-----------5----5--5--3--*||
||---------------------------|--------------------------||


     Q    Q    Q    E  E     E  E  Q    Q    Q      
||------------------------|------------------------||
||*-----------------------|-----------------------*||
||*-------5----7----8--9--|--L--9--8----7----5----*||
||---7--------------------|------------------------||


Last bit/outro
     E  E  E  E  E  E  E  E     E  E  E  Q    E  E  E   8x
||---------------------------|--------------------------||
||*--------------------------|--3--3--3----------------*||
||*--5--5--5--5--5--5--5--5--|-----------5----5--5--3--*||
||---------------------------|--------------------------||

     Q    Q    Q    E  E     E  E  Q    Q    Q       
||------------------------|------------------------||
||*-----------------------|-----------------------*||
||*-------5----7----8--9--|--L--9--8----7----5----*||
||---7--------------------|------------------------||


     Q    Q    E  E  Q       E  E  E  Q    E  Q     4x  Q     Q    H         
||------------------------|-------------------------||----------------------|
||*-----------------------|------------------------*||----------------------|
||*-----------------------|------------------------*||----------------------|
||---0----0----3--3-------|--5--5-----3----2--3-----||--5\------------------|


  W                   Q    Q    Q    Q      
-------------------|----------------------||
-------------------|----------------------||
-------------------|--5-------------------||
-------------------|----------------------||
            
Submit corrections

comments powered by Disqus
↑ Back to top | Rancid Bass for Blast 'em. Lyrics for acoustic guitar and electric guitar. Tablatures and chords are parodies/interpretations of the original songs. You may use it for private study, scholarship, research or language learning purposes only