» » »

Rancid, Avenues Alleyways Tabs (ver.2)

Artists:  A B C D E F G H I J K L M N O P Q R S T U V W X Y Z # 

Avenues Alleyways Tabs (ver.2)

Rancid Tabs
Rating:
0/5 (0 votes)
Avenues Alleyways lessons Tabs too difficult? Try these video lessons and learn fast
                -=(INTRO)=-

guitar1 (notes, long)
E|---------:---------:---------:---------|
B|-0-----3-:-3-3-3-3-:-0-0-0-1-:---1-1-1-| 4x
G|---------:---------:---------:---------|

E|-3-3-3-2-:-2-2-2-2-:-3-3-3-2-:-2-2-2-2-|
B|---------:---------:---------:---------| 1x
G|---------:---------:---------:---------|

E|---------:---------:---------:---------|
B|-0-----3-:-3-3-3-3-:-0-0-0-1-:---1-1-1-| 1x
G|---------:---------:---------:---------|

guitar 2 (chords, long)
G|---------|---------|-5-------|---------|-7---5---|---------|
D|-5-------|-5-------|-5-------|-5-------|-7---5---|-5-------|
A|-5-------|-5-------|-3-------|-5-------|-5---3---|-5-------| 1x
E|-3-------|-3-------|---------|-3-------|---------|-3-------|
the bass line follows these chords


-=(VERSE)=-

guitar1 (chords, short)
G|-----------------:-----5-------5---|
D|-----5-------5---:-----5-------5---|
A|-----5-------5---:-----3-------3---| 8x
E|-----3-------3---:-----------------|
these chords are being played on the 3rd and 7th bass note, like
a ska or reggae rhythm, so play 'm short

guitar2 (play chords long)
G|-----------------:-5---5-5---5-5-5-|
D|-5---5-5---5-5-5-:-5---5-5---5-5-5-|
A|-5---5-5---5-5-5-:-3---3-3---3-3-3-| 4x
E|-3---3-3---3-3-3-:-----------------|

B|-8---8-8---8-8-8-:-----------------|
G|-7---7-7---7-7-7-:-5---5-5---5-5-5-|
D|-5---5-5---5-5-5-:-5---5-5---5-5-5-|
A|-----------------:-3---3-3---3-3-3-| 4x
E|-----------------:-----------------|

bass line
D|-----------------:-----------------|
A|-----------------:-3-3-3-3-3-3-3-3-| 4x
E|-3-3-3-3-3-3-3-3-:-----------------|

D|-----------------:-----2-2-3-3-4-5-|
A|-----2-2-3-3-4-5-:-3-3-------------| 4x
E|-3-3-------------:-----------------|


-=(CHORUS)=-

guitar (chords, long)
G|-7---5---|---------|
D|-7---5---|-5-------|
A|-5---3---|-5-------| 2x
E|---------|-3-------|

bass line
D|----------:----------|----------:----------|
A|-55555555-:-33333333-|----------:---2-3-34-| 2x
E|----------:----------|-33333333-:-33-3-3---|


-=(OUTRO)=-
a little like the chorus, it's being played like the last 3 chords of
the intro, only there's no guitar 1 playing along with it


INTRO
VERSE
CHORUS

VERSE
CHORUS

INTRO
VERSE
CHORUS

OUTRO
CHORUS 2x
OUTRO (play only 3 chords)
            

comments powered by Disqus
↑ Back to top | Rancid Tabs for Avenues Alleyways. Lyrics for acoustic guitar and electric guitar. Tablatures and chords are parodies/interpretations of the original songs. You may use it for private study, scholarship, research or language learning purposes only