» » »

Rancid, Another Night Tabs (ver.1)

Artists:  A B C D E F G H I J K L M N O P Q R S T U V W X Y Z # 

Another Night Tabs (ver.1)

Rancid Tabs
 Rating:
4/5 (6 votes)
Another Night lessons Tabs too difficult? Try these video lessons and learn fast
1
                Intro:
E-------------------------------------------
B-------------------------------------------
G--7-------5-------7-6-7-------5-------7-6--
D--7---3---5---5---7-6-7---3---5---5---7-6--
A--5---3---3---5---5-4-5---3---3---5---5-4--
E------1-------3-----------1-------3--------
   D   F   C   G   D-
C#-D  F   C   G   D-
C#Verse:D  F  C  G (4x)Chorus:
E------------------
B------------------
G--5-----------5---
D--5---5---3---5---
A--3---5---3---3---
E------3---1-------   
C   G   F   C
Over bass solo:D  F  C  G
            
Submit corrections

comments powered by Disqus
↑ Back to top | Rancid Tabs for Another Night. Lyrics for acoustic guitar and electric guitar. 1 Tablatures and chords are parodies/interpretations of the original songs. You may use it for private study, scholarship, research or language learning purposes only