>
 >
199

199 Guitar Tabs

Rancid - 199 chords, tabs, tablatures, lyrics

Guitar lessons | Add/correct | Request | Top 50 tabs Artists:  A B C D E F G H I J K L M N O P Q R S T U V W X Y Z 0-9

199 Guitar Tabs – Rancid

CD, Sheet music, Poster

Do you like 199? Share with your friends now
Tabs
1998
Rancid

    F    A    D    C    Bb    G    FII
e|-------------------------------------|
B|-------------------------------------|
G|------------7----5----3----------10--|
D|--3----7----7----5----3-----5----10--|
A|--3----7----5----3----1-----5----8---|
E|--1----5--------------------3--------|


INTRO:

FII    A

VERSE 1:

D             C      Bb G
White Stones, Queens 1974 
D               C          Bb              G
Fathers talking shit motherfucker slam the door 
D                   C             Bb          G
Hittin' the streets runnin' can I take it any more
F                            A
In the reins of the trains I cuddle on the floor


VERSE 2 (w/lead 1):

         D           C        Bb                G
Well the park bench, door and sleeping here for free
D           C              Bb            G
Little kids sitting in the shooting gallery
D            C           Bb           G
Set yourself up from innocence to misery
      F                     A
Oh if this is what you want not the way of what they fucking


CHORUS:

D         C
Say (say) Yeah (yeah)
G                        A             D C
Hangin out with Sid yet again in the USA-A
G            A
Sidney Sidney in the USA


BRIDGE (w/lead 2):
                                               [x3]
e|-------------------------------------------------|-------------------|
B|-------------------------------------------------|-------------------|
G|--------7-----------5-----------3----------------|-------------------|
D|-----7-----7-----5-----5-----3-----3--------5----|--3-3-3-3--7-7-7-7-|
A|--5-----------3-----------1--------------5-----5-|--3-3-3-3--7-7-7-7-|
E|--------------------------------------3----------|--1-1-1-1--5-5-5-5-|
                                                      F        A




VERSE 3 (No guitars):

Lower east side 1976
Who's got the dope and who's turning tricks
Should I call a user all for a fix
Rippin off some lady just to avoid from gettin sick


VERSE 4 (w/lead 3):

      D         C            Bb              G
But a life runs low when you got no where to go
D             C               Bb             G
What the fuck happens to your soul when your low 
D            C    Bb           G
Is he comin' over is he comin' home 
   F                    A
Oh momma's disappointed waiting by the phone

D           C
Yeah (yeah) Yeah (yeah)
G                        A             D C
Hangin out with Sid yet again in the USA-A
G            A
Sidney Sidney in the USA


BRIDGE      (w/solo)

C  G  (x3)
F  A
C  G  (x3)

F    A
     Yeah

VERSE 5:

D            C    Bb G
Same fuckin' shit 1998 
D       C               Bb              G
Lifting bait, and motherfuckers that he hates 
D                C             Bb      G
Hit some fucking people by the Kennedy strait 
F                       A
Who's got the bag gonna seal his fate? 


VERSE 6 (w/lead 4):
        
         D           C    Bb                G
Well the park bench, door sleeping here for free
D           C              Bb            G
Little kids sitting in the shooting gallery 
D            C          Bb         G
Set yourself up for manifested misery 
     F                     A
Well this is what you want not the way they fucking

D         C
Say (say) Yeah (yeah)
G                        A             D C
Hangin out with Sid yet again in the USA-A
G            A
Sidney Sidney in the USA

D C Bb G D (w/ending)



  Lead 1                                [x3]
e|------------------------------------------|-------------------------|
B|-------10-------10-------10---------------|-------15--13--11--9--10-|
G|--13-------13-------13-------12--10-------|-------------------------|
D|---------------------------------------12-|--12---------------------|
A|------------------------------------------|-------------------------|
E|------------------------------------------|-------------------------|


  Lead 2                                [x3]
e|------------------------------------------|-----------------------------------|
B|-------10-------10-------10---------------|-----------------15--13--11--9--10-|
G|--13-------13-------13-------12--10-------|-------10--13----------------------|
D|---------------------------------------12-|--12-------------------------------|
A|------------------------------------------|-----------------------------------|
E|------------------------------------------|-----------------------------------|


  Lead 3                                [x3]
e|------------------------------------------|-----------------------------------|
B|-------10-------10-------10---------------|---------------------13--10--9--10-|
G|--13-------13-------13-------12--10-------|-------10--13--14------------------|
D|---------------------------------------12-|--12-------------------------------|
A|------------------------------------------|-----------------------------------|
E|------------------------------------------|-----------------------------------|


  Solo                                  [x3]
e|------------------------------------------|
B|-------10-------10-------10---------------|
G|--13-------13-------13-------12--10-------|
D|---------------------------------------12-|
A|------------------------------------------|
E|------------------------------------------|

e|--------------------------------------------------------
B|-----------------15--9h-10--9---------------------------
G|-------10--13---------------------13--12--10---------10-
D|--12-----------------------------------------------12---
A|--------------------------------------------------------
E|--------------------------------------------------------

e|----------------------------------------------------------------------
B|-----------------------15-----------------------15--13--10--9--10--15-
G|-------10--12s-14-------------10--12s-14------------------------------
D|--12-----------------------12-----------------------------------------
A|----------------------------------------------------------------------
E|----------------------------------------------------------------------

e|-------------------------------------------------------------------------------|
B|-10--13--15-----10--13--15-15s-17--15----10--13--15-----10--13--15------9---10-|
G|-------------------------------------------------------------------------------|
D|-------------------------------------------------------------------------------|
A|-------------------------------------------------------------------------------|
E|-------------------------------------------------------------------------------|


  Lead 4                                [x3]
e|------------------------------------------|------------------------------------|
B|-------10-------10-------10---------------|----------------15--9h-10-9--10--15-|
G|--13-------13-------13-------12--10-------|-------10--13-----------------------|
D|---------------------------------------12-|--12--------------------------------|
A|------------------------------------------|------------------------------------|
E|------------------------------------------|------------------------------------|


  Ending                                                 
e|------------------------------------------|--------------|
B|-------10-------10-------10---------------|--------------|
G|--13-------13-------13-------12--10-------|--13----------|
D|---------------------------------------12-|--------------|
A|------------------------------------------|--------------|
E|------------------------------------------|--------------|





Comments


Popular Rancid tabs & chords
Cocktails 4 Bass Tabs
Leicester Square 3 Bass Tabs
Reconciliation 2 Bass Tabs
The Brothels Bass Tabs
Dominoes Fall Chords
Antennas Tabs
I Wanna Riot 2 Tabs
International Cover Up Tabs
Last One To Die 2 Tabs
The Way I Feel 2 Tabs


Song lyrics



↑ Back to top | Tablatures and chords are parodies/interpretations of the original songs. You may use it for private study, scholarship, research or language learning purposes only
© 2014 AZChords.com Contact us | Privacy policy | DMCA | Add/correct tabs | Request tabs | Top 50 tabs