>
 >
100 Years

100 Years Guitar Tabs

Rancid - 100 Years chords, tabs, tablatures, lyrics

Guitar lessons | Add/correct | Request | Top 50 tabs Artists:  A B C D E F G H I J K L M N O P Q R S T U V W X Y Z 0-9

100 Years Guitar Tabs – Rancid

CD, Sheet music, Poster

Do you like 100 Years? Share with your friends now
Tabs
-----------------------------------------------------------------------
-----------------------------------------------------------------------

Tuning:Standard

This is maybe wrong but I'm gonna give it a try!

Guitar 1 Part1 [1-17secs]    
e|-------------------------------------------------| Basically the
B|-------------------------------------------------| 14 strums are
G|-7-7------7-7---------------7-7------------------| palm muted, and 
D|-7-7[x14]-7-7[x14]-7-7------7-7[x14]-------------| the one before 
A|-5-5------5-5------7-7[x14]-5-5------------------| isn't.
E|-------------------5-5---------------------------|     
pm   .        .        .        .

Guitar 2 Part1
e|-------------------------------------------------|
B|-------------------------10101010101010-8--------|
G|-7-777777777777777777777------------------10-9-7-|
D|-------------------------------------------------|  
A|-------------------------------------------------|
E|-------------------------------------------------|

Guitar 1 Part2 [18-24 secs] Same pattern as before
e|-------------------------------------------------|
B|-------------------------------------------------|
G|-----------9-------------------------------------|
D|--5--------9----------7--------------------------|
A|--5--------7----------7--------------------------|
E|--3-------------------5--------------------------|

Guitar 2 Part2 - Trem picking
e|-------------------------------------------------|
B|-------------------------------------------------|
G|------7---------6----9[let this ring]------------|
D|-7/9-----9---7-----------------------------------|
A|-------------------------------------------------|
E|-------------------------------------------------|

e|-------------------------------------------------|
B|-------------------------------------------------|
G|------7---------6----9[let this ring]----7-6-9---|
D|-7/9-----9---7-------------------------9---------|
A|-------------------------------------------------|
E|-------------------------------------------------|
                                        |________|<<< Not trem picked.

Guitar 1 Part3
e|-------------------------------------------------|
B|-------------------8-----------------------------|
G|--7----------7-----7----7------------------------|
D|--7----7-----7-----5----5----7-----5------5------|
A|--5----7-----5----------5----7-----5------5------|
E|-------5---------------------5-----3------3------|

Guitar 2 Part3
e|-------------------------------------------------|
B|-------------------------10101010101010-8--------|
G|-7-777777777777777777777------------------10-9-7-|
D|-------------------------------------------------|  
A|-------------------------------------------------|
E|-------------------------------------------------|

e|-------------------------------------------------|
B|--10--8-----8------------------------------------|
G|---------10----10--9--10-9-7---------------------|
D|-------------------------------------------------|
A|-------------------------------------------------|
E|-------------------------------------------------|

Guitar1 Breakdown [41-45]
e|-------------------------------------------------|
B|-------------------------------------------------|
G|--7-------7-------7-------7----------------------|
D|--7----7--7----7--7----7--7----7-----------------|
A|--5----7--5----7--5----7--5----7-----------------|
E|-------5-------5-------5-------5-----------------|

guitar 1 - Bass Solo
e|-------------------------------------------------|
B|-------------------------------------------------|
G|-------------------------------------------------|
D|-------------------------------------------------|
A|-5-555555-2-222222-7-777777-7-777777-------------|
E|-3-333333-0-000000-5-555555-5-555555-------------|

At the end of the solo guitar 2 does something like this:
e|-------------------------------------------------|
B|-------------------------------------------------|
G|----------------------------9^p7-----------------|
D|-------------------------------------------------|
A|----------played-very-sloppy-though--------------|
E|-------------------------------------------------|

The Outro is Guitar1 breakdown, 
with the second part of Guitar2 Part3 played together.
Then end on:

e|------------|
B|------------|
G|----7-------|
D|----7-------|
A|----5-------|
E|------------|

Order:
Part1 x2
Part2 x2
Part3 x2
Breakdown
Part1 x2
Part2 x2
Part3 x2
Bass Solo
Part3 x2

| /  slide up
| \  slide down
| h  hammer-on
| p  pull-off
| ~  vibrato
| +  harmonic
| x  Mute note
======================================================================





Comments


Popular Rancid tabs & chords
Bob Bass Tabs
Don Giovanni 2 Bass Tabs
If The Kids Are United 1 Bass Tabs
Maxwell Murder 6 Bass Tabs
Tenderloin Bass Tabs
Poison Chords
7 Years Down Tabs
Side Kick Tabs
Corazon De Oro Ukulele
Lady Liberty Ukulele


Song lyrics



↑ Back to top | Tablatures and chords are parodies/interpretations of the original songs. You may use it for private study, scholarship, research or language learning purposes only
© 2014 AZChords.com Contact us | Privacy policy | DMCA | Add/correct tabs | Request tabs | Top 50 tabs