>
 >
What A Wondeful World 1

What A Wondeful World 1 Guitar Tabs

Ramones - What A Wondeful World 1 chords, tabs, tablatures, lyrics

Guitar lessons | Add/correct | Request | Top 50 tabs Artists:  A B C D E F G H I J K L M N O P Q R S T U V W X Y Z 0-9

What A Wondeful World 1 Guitar Tabs – Ramones

CD, Sheet music, Poster

Do you like What A Wondeful World 1? Share with your friends now
TabsTabs v2
                            What A Wonderful World                              

Scroll down for the notation legend!!!!!!

                                                                     Joey Ramone
Guitar



                                    F5          F5     
     Q    Q    Q     Q        E  E  E  E  E  E  E  E   
E||------------------------|--------------------------|
B||------------------------|--------------------------|
G||------------------------|--------------------------|
D||------------------------|--------3--3--------------|
A||------------------------|--------3--3--------3--3--|
E||-----------------13S----|--1--1--1--1--1--1--1--1--|


  E  E  E  E  E  E  E  E     E  E  E  E  E  E  E  E   
--------------------------|--------------------------|
--------------------------|--------------------------|
--------------------------|--------------------------|
--------3--3--------------|--------3--3--------------|
--------3--3--------3--3--|--------3--3--------3--3--|
--1--1--1--1--1--1--1--1--|--1--1--1--1--1--1--1--1--|


  E  E  E  E  E  E  E  E     E  E  E  E  E  E  E  E   
--------------------------|--------------------------|
--------------------------|--------------------------|
--------------------------|--------------------------|
--------3--3--------------|--------3--3--------------|
--------3--3--------3--3--|--------3--3--------3--3--|
--1--1--1--1--1--1--1--1--|--1--1--1--1--1--1--1--1--|


  E  E  E  E  E  E  E  E     E  E  E  E  E  E  E  E   
--------------------------|--------------------------|
--------------------------|--------------------------|
--------------------------|--------------------------|
--------3--3--------------|--------3--3--------------|
--------3--3--------3--3--|--------3--3--------3--3--|
--1--1--1--1--1--1--1--1--|--1--1--1--1--1--1--1--1--|


                             F5   F5                   A5                       
  E  E  E  E  E  E  E  E     Q    E  E  E  E  E  E     E  E  E  E  E  E  E  E   
--------------------------|-------------------------|--------------------------|
--------------------------|-------------------------|--------------------------|
--------------------------|-------------------------|--------------------------|
--------3--3--------------|--3----------------------|--------------------------|
--------3--3--------3--3--|--3----3--3--3--3--3--3--|--7--7--7--7--7--7--7--7--|
--1--1--1--1--1--1--1--1--|--1----1--1--1--1--1--1--|--5--5--5--5--5--5--5--5--|


  A#5                         A5                       
  E   E  E  E  E  E  E  E     E  E  E  E  E  E  E  E   
---------------------------|--------------------------|
---------------------------|--------------------------|
---------------------------|--------------------------|
---------------------------|--------------------------|
--8---8--8--8--8--8--8--8--|--7--7--7--7--7--7--7--7--|
--6---6--6--6--6--6--6--6--|--5--5--5--5--5--5--5--5--|


  G5                         F5                       
  E  E  E  E  E  E  E  E     E  E  E  E  E  E  E  E   
--------------------------|--------------------------|
--------------------------|--------------------------|
--------------------------|--------------------------|
--------------------------|--------------------------|
--5--5--5--5--5--5--5--5--|--3--3--3--3--3--3--3--3--|
--3--3--3--3--3--3--3--3--|--1--1--1--1--1--1--1--1--|


  C#5                         D5                         C#5               
  E   E  E  E  E  E  E  E     E  E  E  E  E  E  E  E     W                 
---------------------------|--------------------------|-------------------|
---------------------------|--------------------------|-------------------|
---------------------------|--------------------------|-------------------|
--6---6--6--6--6--6--6--6--|--7--7--7--7--7--7--7--7--|--6----------------|
--4---4--4--4--4--4--4--4--|--5--5--5--5--5--5--5--5--|--4----------------|
---------------------------|--------------------------|-------------------|


                           A#5                 C5                
  Q     Q    E  E  Q       W                   W                 
------------------------|-------------------|-------------------|
------------------------|-------------------|-------------------|
------------------------|-------------------|-------------------|
--3h----6----3--1-------|--3----------------|--5----------------|
-------------------4----|--1----------------|--3----------------|
------------------------|-------------------|-------------------|


  F5                                      C5                                    
  W                   W                   W                   W                 
-------------------|-------------------|-------------------|-------------------|
-------------------|-------------------|-------------------|-------------------|
--5----------------|--L----------------|-------------------|-------------------|
--3----------------|--L----------------|--5----------------|--L----------------|
-------------------|-------------------|--3----------------|--L----------------|
-------------------|-------------------|-------------------|-------------------|


  Q    E  E  E  E  E  E     E  E  E  E  E  E  E  E     E  E  E  E  E  E  E  E   
-------------------------|--------------------------|--------------------------|
-------------------------|--------------------------|--------------------------|
-------------------------|--------------------------|--------------------------|
--3----------------------|--------------------------|--------------------------|
--3----3--3--3--3--3--3--|--7--7--7--7--7--7--7--7--|--8--8--8--8--8--8--8--8--|
--1----1--1--1--1--1--1--|--5--5--5--5--5--5--5--5--|--6--6--6--6--6--6--6--6--|


  E  E  E  E  E  E  E  E     E  E  E  E  E  E  E  E   
--------------------------|--------------------------|
--------------------------|--------------------------|
--------------------------|--------------------------|
--------------------------|--------------------------|
--7--7--7--7--7--7--7--7--|--5--5--5--5--5--5--5--5--|
--5--5--5--5--5--5--5--5--|--3--3--3--3--3--3--3--3--|


  E  E  E  E  E  E  E  E     E  E  E  E  E  E  E  E   
--------------------------|--------------------------|
--------------------------|--------------------------|
--------------------------|--------------------------|
--------------------------|--6--6--6--6--6--6--6--6--|
--3--3--3--3--3--3--3--3--|--4--4--4--4--4--4--4--4--|
--1--1--1--1--1--1--1--1--|--------------------------|


  E  E  E  E  E  E  E  E     W                   Q     Q    E  E  Q     
--------------------------|-------------------|------------------------|
--------------------------|-------------------|------------------------|
--------------------------|-------------------|------------------------|
--7--7--7--7--7--7--7--7--|--6----------------|--3h----6----3--1-------|
--5--5--5--5--5--5--5--5--|--4----------------|-------------------4----|
--------------------------|-------------------|------------------------|


                                          F5                      
  W                   W                   Q    E  E  E  E  E  E   
-------------------|-------------------|-------------------------|
-------------------|-------------------|-------------------------|
-------------------|-------------------|--5----5--5--5--5--5--5--|
--3----------------|--5----------------|--3----3--3--3--3--3--3--|
--1----------------|--3----------------|-------------------------|
-------------------|-------------------|-------------------------|


  E5                                                  
  E  E  E  E  E  E  E  E     E  E  E  E  E  E  E  E   
--------------------------|--------------------------|
--------------------------|--------------------------|
--4--5--5--5--5--5--5--5--|--4--5--5--5--4--5--5--5--|
--2--3--3--3--3--3--3--3--|--2--3--3--3--2--3--3--3--|
--------------------------|--------------------------|
--------------------------|--------------------------|


                             C5                                    
  E  E  E  E  E  E  E  E     W                   W                 
--------------------------|-------------------|-------------------|
--------------------------|-------------------|-------------------|
--4--5--4--5--4--5--4--5--|-------------------|-------------------|
--2--3--2--3--2--3--2--3--|--5----------------|--L----------------|
--------------------------|--3----------------|--L----------------|
--------------------------|-------------------|-------------------|


  F5                     A#                                     
  W                   E  Q    Q    Q    E     W                 
-------------------|-----6----5------------|-------------------|
-------------------|-----6-----------------|-------------------|
--5----------------|--L--L----L----L----L--|-------------------|
--3----------------|--L--L----L---------L--|--5----------------|
-------------------|-----------------------|--3----------------|
-------------------|-----------------------|-------------------|


  W                   W                   E  Q    Q    Q    E   
-------------------|-------------------|-----6----5------------|
-------------------|-------------------|-----6-----------------|
-------------------|--5----------------|--L--L----L----L----L--|
--L----------------|--3----------------|--L--L----L---------L--|
--L----------------|-------------------|-----------------------|
-------------------|-------------------|-----------------------|


  D5                  A5                                                        
  W                   W                   W                   W                 
-------------------|-------------------|-------------------|-------------------|
-------------------|-------------------|-------------------|-------------------|
--7----------------|-------------------|--7----------------|-------------------|
--7----------------|--7----------------|--7----------------|--7----------------|
--5----------------|--7----------------|--5----------------|--7----------------|
-------------------|--5----------------|-------------------|--5----------------|


                                          A#5                 C5                
  W                   W                   W                   W                 
-------------------|-------------------|-------------------|-------------------|
-------------------|-------------------|-------------------|-------------------|
--7----------------|-------------------|--3----------------|--5----------------|
--7----------------|--7----------------|--3----------------|--5----------------|
--5----------------|--7----------------|--1----------------|--3----------------|
-------------------|--5----------------|-------------------|-------------------|


  Q    E  E  E  E  E  E     E  E  E  E  E  E  E  E     E  E  E  E  E  E  E  E   
-------------------------|--------------------------|--------------------------|
-------------------------|--------------------------|--------------------------|
-------------------------|--------------------------|--------------------------|
--3----------------------|--------------------------|--------------------------|
--3----3--3--3--3--3--3--|--7--7--7--7--7--7--7--7--|--8--8--8--8--8--8--8--8--|
--1----1--1--1--1--1--1--|--5--5--5--5--5--5--5--5--|--6--6--6--6--6--6--6--6--|


  E  E  E  E  E  E  E  E     E  E  E  E  E  E  E  E   
--------------------------|--------------------------|
--------------------------|--------------------------|
--------------------------|--------------------------|
--------------------------|--------------------------|
--7--7--7--7--7--7--7--7--|--5--5--5--5--5--5--5--5--|
--5--5--5--5--5--5--5--5--|--3--3--3--3--3--3--3--3--|


  E  E  E  E  E  E  E  E     E  E  E  E  E  E  E  E   
--------------------------|--------------------------|
--------------------------|--------------------------|
--------------------------|--------------------------|
--------------------------|--6--6--6--6--6--6--6--6--|
--3--3--3--3--3--3--3--3--|--4--4--4--4--4--4--4--4--|
--1--1--1--1--1--1--1--1--|--------------------------|


  E  E  E  E  E  E  E  E     W                   Q     Q    E  E  Q     
--------------------------|-------------------|------------------------|
--------------------------|-------------------|------------------------|
--------------------------|-------------------|------------------------|
--7--7--7--7--7--7--7--7--|--6----------------|--3h----6----3--1-------|
--5--5--5--5--5--5--5--5--|--4----------------|-------------------4----|
--------------------------|-------------------|------------------------|


                                          F5                  D#5               
  W                   W                   W                   W                 
-------------------|-------------------|-------------------|-------------------|
-------------------|-------------------|--6----------------|--4----------------|
-------------------|-------------------|--5----------------|--3----------------|
--3----------------|--5----------------|--3----------------|--1----------------|
--1----------------|--3----------------|-------------------|-------------------|
-------------------|-------------------|-------------------|-------------------|


  D5                                      A#5               
  W                   W                   W                 
-------------------|-------------------|-------------------|
--3----------------|--L----------------|-------------------|
--2----------------|--L----------------|-------------------|
--0----------------|--L----------------|--3----------------|
-------------------|-------------------|--1----------------|
-------------------|-------------------|-------------------|


                          C5                  C5                
  H        E  E  E  E     W                   W                 
-----------------------|-------------------|-------------------|
-----------------------|-------------------|-------------------|
-----------------------|-------------------|-------------------|
--3--------L--3--3--3--|--5----------------|--5----------------|
--1--------L--1--1--1--|--3----------------|--3----------------|
-----------------------|-------------------|-------------------|


  W                   W                   W                   W                 
-------------------|-------------------|-------------------|-------------------|
--6----------------|--4----------------|--3----------------|--L----------------|
--5----------------|--3----------------|--2----------------|--L----------------|
--3----------------|--1----------------|--0----------------|--L----------------|
-------------------|-------------------|-------------------|-------------------|
-------------------|-------------------|-------------------|-------------------|


  W                   W                   W                   W                 
-------------------|-------------------|-------------------|-------------------|
--6----------------|--4----------------|--3----------------|--L----------------|
--5----------------|--3----------------|--2----------------|--L----------------|
--3----------------|--1----------------|--0----------------|--L----------------|
-------------------|-------------------|-------------------|-------------------|
-------------------|-------------------|-------------------|-------------------|


  W                   H        E  E  E  E     W                 
-------------------|-----------------------|-------------------|
-------------------|-----------------------|-------------------|
-------------------|-----------------------|-------------------|
--3----------------|--3--------L--3--3--3--|--5----------------|
--1----------------|--1--------L--1--1--1--|--3----------------|
-------------------|-----------------------|-------------------|


  W                   W                   Q     Q    E  E  Q     
-------------------|-------------------|------------------------|
-------------------|-------------------|------------------------|
-------------------|-------------------|------------------------|
--L----------------|--6----------------|--3S----6----3--1-------|
--L----------------|--4----------------|-------------------4----|
-------------------|-------------------|------------------------|


  D#5                                          F5                
  W                   Q     Q    E  E  Q       W                 
-------------------|------------------------|-------------------|
-------------------|------------------------|-------------------|
--3----------------|------------------------|--5----------------|
--1----------------|--5S----8----5--3-------|--3----------------|
-------------------|-------------------6----|-------------------|
-------------------|------------------------|-------------------|


  W                    H         Q    Q              
-------------------|-----------------------|-------||
-------------------|-----------------------|-------||
--L----------------|-----------------------|-------||
--L----------------|-----------------------|-------||
-------------------|--15S--------3---------|-------||
-------------------|--13S--------1---------|-------||




Duration Legend
---------------
W - whole
H - half
Q - quarter
E - 8th
S - 16th
T - 32nd
X - 64th
. - note dotted
|-n-|  - n-tuplets


Tablature Legend
----------------
L - tied note
x - dead note
g - grace note
(n) - ghost note
> - accentuded note
NH - natural harmonic
AH - artificial harmonic
TH - tapped harmonic
SH - semi harmonic
PH - pitch harmonic
h - hammer on
p - pull off
b - bend
br - bendRelease
pb - preBend
pbr - preBendRelease
brb - bendReleaseBend
\n/ - tremolo bar dip
\n - tremolo bar dive
-/n - tremolo bar Release up
/n\ - tremolo bar inverted dip
/n - tremolo bar return
-\n - tremolo bar Release down
S - shift slide
s - legato slide
/ -  slide into from below or out of upwards
\ -  slide into from above or out of downwards
~ - vibrato
W - wide vibrato
tr - trill
TP - tremolo picking
T - tapping
S - slap
P - pop
< - fade in
^ - brush up
v - brush down





Comments


Popular Ramones tabs & chords
Blitzkreig Bop 1 Bass Tabs
Durango 95 Bass Tabs
Everytime I Eat Vegetables It Makes Me Think Of You Bass Tabs
Here Today Gone Tomorrow Bass Tabs
Too Tough To Die Bass Tabs
Pet Semetary Tabs
Psycho Therapy 1 Tabs
What A Wonderful World Tabs
Censorshit Ukulele
Have A Nice Day Ukulele


Song lyrics



↑ Back to top | Tablatures and chords are parodies/interpretations of the original songs. You may use it for private study, scholarship, research or language learning purposes only
© 2014 AZChords.com Contact us | Privacy policy | DMCA | Add/correct tabs | Request tabs | Top 50 tabs