>
 >
Wart Hog 1

Wart Hog 1 Guitar Tabs

Ramones - Wart Hog 1 chords, tabs, tablatures, lyrics

Guitar lessons | Add/correct | Request | Top 50 tabs Artists:  A B C D E F G H I J K L M N O P Q R S T U V W X Y Z 0-9

Wart Hog 1 Guitar Tabs – Ramones

CD, Sheet music, Poster

Do you like Wart Hog 1? Share with your friends now
Bass TabsBass Tabs v2ChordsTabsTabs v2Tabs v3Ukulele
Alright, this is a pretty simple song.Its repetitive and easy so it shouldn't be a problem.  
                                               (2x)
|-------------------------------------------------|
|-------------------------------------------------|
|-------------------------------------------------|
|------------------17-15--------------------17-15-|
|15-15-15-15-15-15-15-13--15-15-15-15-15-15-15-13-|
|13-13-13-13-13-13--------13-13-13-13-13-13-------|

|----------------------------------------|
|----------------------------------------|
|10~-------10~-------10~-------10~-------|
|10~-7~-9~-10~-7~-9~-10~-7~-9~-10~-7~-9~-|
|-8~-7~-9~--8~-7~-9~--8~-7~-9~--8~-7~-9~-|
|----5~-7~-----5~-7~-----5~-7~-----5~-7~-|

|-----------------|
|-----------------|
|---6~-8~----6~-8~|
|8~-6~-8~-8~-6~-8~|
|8~-4~-6~-8~-4~-6~|
|6~-------6~------|

|----------------------------------------|
|----------------------------------------|
|10~-------10~-------10~-------10~-------|
|10~-7~-9~-10~-7~-9~-10~-7~-9~-10~-7~-9~-|
|-8~-7~-9~--8~-7~-9~--8~-7~-9~--8~-7~-9~-|
|----5~-7~-----5~-7~-----5~-7~-----5~-7~-|

                        (4x)
|------------------------|
|------------------------|
|------------------------|
|------------------17-15-|
|15-15-15-15-15-15-15-13-|
|13-13-13-13-13-13-------|

|---------------------------------------|
|---------------------------------------|
|10~-------10~-------10~-------10~------|
|10~-7~-9~-10~-7~-9~-10~-7~-9~-10~-7~-9~|
|-8~-7~-9~--8~-7~-9~--8~-7~-9~--8~-7~-9~|
|----5~-7~-----5~-7~-----5~-7~-----5~-7~|
 
                                  (2x)
|------------------------------------|
|------------------------------------|
|8-8---------------8-8---------------|
|8-8-999-6-6666666-8-8-999-6-6666666-|
|6-6-999-6-6666666-6-6-999-6-6666666-|
|----777-4-4444444-----777-4-4444444-|
            
          (4x)
|----------|
|----------|
|10~-------|
|10~-7~-9~-|
|-8~-7~-9~-|
|----5~-7~-|
                     (4x)
|------------------------|
|------------------------|
|------------------------|
|------------------17-15-|
|15-15-15-15-15-15-15-13-|
|13-13-13-13-13-13-------|

          (2x)              (2x) 
|---------|      |-----------|
|---------|      |-----------|
|---6~-8~-|      |----11~-13-|
|8~-6~-8~-|      |13~-11~-13-|
|8~-4~-6~-|      |13~--9~-11-|
|6~-------|      |11~--------|
                       (4x)
|------------------------|
|------------------------|
|------------------------|
|------------------17-15-|
|15-15-15-15-15-15-15-13-|
|13-13-13-13-13-13-------|

        (2x)              (2x)
|--------|     |-----------|
|--------|     |-----------|
|---6--8-|     |----11~-13-|
|8~-6~-8-|     |13~-11~-13-|
|8~-4~-6-|     |13~--9~-11-|
|6~------|     |11---------|
                   
                       (4x)
|------------------------|
|------------------------|
|------------------------|
|------------------17-15-|
|15-15-15-15-15-15-15-13-|
|13-13-13-13-13-13-------|

So this tab actually took me awhile to write so enjoy it.





Comments


Popular Ramones tabs & chords
I Dont Want To Go To The Basement Bass Tabs
I Just Want To Have Something To Do 1 Bass Tabs
The Kkk Took My Baby Away Chords
Don't Come Close Tabs
Like A Drug I Never Did Before Tabs
Listen To My Heart Tabs
Spiderman 2 Tabs
Spiderman 3 Tabs
I Dont Wanna Walk Around With You Ukulele
The Crusher Ukulele


Song lyrics



↑ Back to top | Tablatures and chords are parodies/interpretations of the original songs. You may use it for private study, scholarship, research or language learning purposes only
© 2014 AZChords.com Contact us | Privacy policy | DMCA | Add/correct tabs | Request tabs | Top 50 tabs