» » »

Texas Chainsaw Massacre Tabs (ver.1)

Artists:  A B C D E F G H I J K L M N O P Q R S T U V W X Y Z # 

Texas Chainsaw Massacre Tabs (ver.1)

Ramones
Rating:
0/5 (0 votes)

Hard to play? Try these video lessons and learn fast.
                
Intro:
E	-----------------------------------------------------------------
B	-----------------------------------------------------------------
G	-2-2-2-2-2-2-2-2-----------------4-4-4-4-4-4-4-4-----------------
D	-2-2-2-2-2-2-2-2-4-4-4-4-4-4-4-4-4-4-4-4-4-4-4-4-2-2-2-2-2-2-2-2- [x2]
A	-0-0-0-0-0-0-0-0-4-4-4-4-4-4-4-4-2-2-2-2-2-2-2-2-2-2-2-2-2-2-2-2-
E	-----------------2-2-2-2-2-2-2-2-----------------0-0-0-0-0-0-0-0-

Verse 1:
E	-----------------------------------------------------------------
B	-----------------------------------------------------------------
G	-2-2-2-2-2-2-2-2-----------------2-2-2-2-2-2-2-2-----------------
D	-2-2-2-2-2-2-2-2-4-4-4-4-4-4-4-4-2-2-2-2-2-2-2-2-4-4-4-4-4-4-4-4-
A	-0-0-0-0-0-0-0-0-4-4-4-4-4-4-4-4-0-0-0-0-0-0-0-0-4-4-4-4-4-4-4-4-
E	-----------------2-2-2-2-2-2-2-2-----------------2-2-2-2-2-2-2-2-

E	-----------------------------------------------------------------
B	-----------------------------------------------------------------
G	-4-4-4-4-4-4-4-4-----------------4-4-4-4-4-4-4-4----------------- [x2]
D	-4-4-4-4-4-4-4-4-2-2-2-2-2-2-2-2-4-4-4-4-4-4-4-4-2-2-2-2-2-2-2-2-
A	-2-2-2-2-2-2-2-2-2-2-2-2-2-2-2-2-2-2-2-2-2-2-2-2-2-2-2-2-2-2-2-2-
E	-----------------0-0-0-0-0-0-0-0-----------------0-0-0-0-0-0-0-0-

E	---------------------------------
B	---------------------------------
G	---------------------------------
D	-4-4-4-4-4-4-4-4-2-2-2-2-2-2-2-2-
A	-4-4-4-4-4-4-4-4-2-2-2-2-2-2-2-2-
E	-2-2-2-2-2-2-2-2-0-0-0-0-0-0-0-0-

Chorus:
E	-----------------------------------------------------------------
B	-----------------------------------------------------------------
G	-2-2-2-2-2-2-2-2-----------------2-2-2-2-2-2-2-2-----------------
D	-2-2-2-2-2-2-2-2-4-4-4-4-4-4-4-4-2-2-2-2-2-2-2-2-4-4-4-4-4-4-4-4-
A	-0-0-0-0-0-0-0-0-4-4-4-4-4-4-4-4-0-0-0-0-0-0-0-0-4-4-4-4-4-4-4-4-
E	-----------------2-2-2-2-2-2-2-2-----------------2-2-2-2-2-2-2-2-

E	-----------------------------------------------------------------
B	-----------------------------------------------------------------
G	-4-4-4-4-4-4-4-4-----------------4-4-4-4-4-4-4-4----------------- [x2]
D	-4-4-4-4-4-4-4-4-2-2-2-2-2-2-2-2-4-4-4-4-4-4-4-4-2-2-2-2-2-2-2-2-
A	-2-2-2-2-2-2-2-2-2-2-2-2-2-2-2-2-2-2-2-2-2-2-2-2-2-2-2-2-2-2-2-2-
E	-----------------0-0-0-0-0-0-0-0-----------------0-0-0-0-0-0-0-0-

E	---------------------------------
B	---------------------------------
G	---------------------------------
D	-4-4-4-4-4-4-4-4-2-2-2-2-2-2-2-2-
A	-4-4-4-4-4-4-4-4-2-2-2-2-2-2-2-2-
E	-2-2-2-2-2-2-2-2-0-0-0-0-0-0-0-0-

Bridge:
E	-----------------------------------------------------------------
B	-----------------------------------------------------------------
G	---------------------------------2-2-2-2-2-2-2-2-2-2-2-2-2-2-2-2-
D	-2-2-2-2-2-2-2-2-2-2-2-2-2-2-2-2-2-2-2-2-2-2-2-2-2-2-2-2-2-2-2-2-
A	-2-2-2-2-2-2-2-2-2-2-2-2-2-2-2-2-0-0-0-0-0-0-0-0-0-0-0-0-0-0-0-0-
E	-0-0-0-0-0-0-0-0-0-0-0-0-0-0-0-0---------------------------------

E	-----------------------------------------------------------------
B	-----------------------------------------------------------------
G	-----------------------------------------------------------------
D	-2-2-2-2-2-2-2-2-2-2-2-2-2-2-2-2-4-4-4-4-4-4-4-4-4-4-4-4-4-4-4-4-
A	-2-2-2-2-2-2-2-2-2-2-2-2-2-2-2-2-4-4-4-4-4-4-4-4-4-4-4-4-4-4-4-4-
E	-0-0-0-0-0-0-0-0-0-0-0-0-0-0-0-0-2-2-2-2-2-2-2-2-2-2-2-2-2-2-2-2-

Parting Words:
E	-----------------------------------------------------------------
B	-----------------------------------------------------------------
G	-2-2-2-2-2-2-2-2-----------------2-2-2-2-2-2-2-2-----------------
D	-2-2-2-2-2-2-2-2-4-4-4-4-4-4-4-4-2-2-2-2-2-2-2-2-4-4-4-4-4-4-4-4-[x4]
A	-0-0-0-0-0-0-0-0-4-4-4-4-4-4-4-4-0-0-0-0-0-0-0-0-4-4-4-4-4-4-4-4-
E	-----------------2-2-2-2-2-2-2-2-----------------2-2-2-2-2-2-2-2-

E	---------------------------------------
B	---------------------------------------
G	-2-2-2-2-2-2-2-2-----------------2-----
D	-2-2-2-2-2-2-2-2-4-4-4-4-4-4-4-4-2-----
A	-0-0-0-0-0-0-0-0-4-4-4-4-4-4-4-4-0-----
E	-----------------2-2-2-2-2-2-2-2-------
            
Hard to play? Try these video lessons and learn fast. | Correct




comments powered by Disqus
↑ Back to top | Tablatures and chords are parodies/interpretations of the original songs. You may use it for private study, scholarship, research or language learning purposes only