» » »

Strength To Endure Tabs (ver.1)

Artists:  A B C D E F G H I J K L M N O P Q R S T U V W X Y Z # 

Strength To Endure Tabs (ver.1)

Ramones
Rating:
0/5 (0 votes)

Tabs too difficult? Try these video lessons and learn fast.
                Intro/Bridge:
                               4x
e--------------------------------
b--------------------------------
g---5--5-5---9--9----------------
d---5--5-5---9--9---7-7--7--7----
a---3--3-3---7--7---7-7--7--7----
e-------------------5-5--5--5----


Verse: (slight palm mute)
                               8x
e--------------------------------
b--------------------------------
g---5--5-5---9--9----------------
d---5--5-5---9--9---7-7--7--7----
a---3--3-3---7--7---7-7--7--7----
e-------------------5-5--5--5----


Chorus:
                                     3x
e-------------------------------------- ---------------------------------------
b-------------------------------------- ---------------------------------------
g-------------------------------------- ---------------------------------------
d---9-9-9-9-9-9-9-9--7-7-7-7-7-7-7-7--- ---5-5-5-5-5-5-5-5--3-3-3-3-3-3-3-3----
a---9-9-9-9-9-9-9-9--7-7-7-7-7-7-7-7--- ---5-5-5-5-5-5-5-5--3-3-3-3-3-3-3-3----
e---7-7-7-7-7-7-7-7--5-5-5-5-5-5-5-5--- ---3-3-3-3-3-3-3-3--1-1-1-1-1-1-1-1----


Song Structure:

1. Intro
2. Verse
3. Chorus
4. Verse
5. Chorus
6. Bridge
7.Chorus
8. Verse
9. Chorus (2x)
10. Bridge


Thats the whole song...
            
Tabs too difficult? Try these video lessons and learn fast.


comments powered by Disqus
↑ Back to top | Tablatures and chords are parodies/interpretations of the original songs. You may use it for private study, scholarship, research or language learning purposes only