» » »

Ramones, Spider-Man Bass tabs (ver.2)

Artists:  A B C D E F G H I J K L M N O P Q R S T U V W X Y Z # 

Spider-Man Bass tabs (ver.2)

Ramones Tabs
 Rating:
4/5 (4 votes)
Spider-Man lessons Tabs too difficult? Try these video lessons and learn fast
                "Intro x 4
G|------------|
D|---44-55-77-|
A|-55---------|
E|------------|

Verse (all of them except for verse 2)
G|--------------------44-55-77-(x2)--------------------66-77-99-|
D|---44-55-77-(x4)-55---------------44-55-77-(x2)--77-----------|
A|-55----------------------------55-----------------------------|
E|--------------------------------------------------------------|

G|----44-55-77-----------|
D|-55-----------44-55-77-|
A|------------55---------|
E|-----------------------|

Chorus
G|-------------------------------------------------------------|
D|-3-(x8)--------5-(x8)----------3-(x8)----------5-(x8)-7-(x8)-|
A|--------3-(x8)----------5-(x8)----------3-(x8)---------------|
E|-------------------------------------------------------------|

Verse Two (plus solo) x 2
G|---------------------------------------------------|
D|----------5-(x16)-----------7-(x8)-5-(x8)----------|
A|-5-(x32)-----------5-(x16)-----------------5-(x16)-|
E|---------------------------------------------------|

Outro (after verse)
G|----------------44-55-77----------------44-55-77--------|
D|----44-55-77-55-------------44-55-77-55-----------------|
A|-55----------------------55----------------------5----5-|
E|--------------------------------------------------------|
"            
Submit corrections

comments powered by Disqus
↑ Back to top | Ramones Bass for Spider-Man. Lyrics for acoustic guitar and electric guitar. Tablatures and chords are parodies/interpretations of the original songs. You may use it for private study, scholarship, research or language learning purposes only