» » »

Ramones, Rockaway Beach Bass tabs (ver.1)

Artists:  A B C D E F G H I J K L M N O P Q R S T U V W X Y Z # 

Rockaway Beach Bass tabs (ver.1)

Ramones Tabs
Rating:
0/5 (0 votes)
Rockaway Beach lessons Tabs too difficult? Try these video lessons and learn fast
                

Intro:

G|--------------------------------------|
D|--------------------------------------|
A|--4/5-5-5-5-5-5-5-5--4/5-5-5-5-5-5-5--|
E|--------------------------------------|

Verse:

G|------------------------|------------------|
D|------------------------|------------------|
A|------------------------|-5-5-5-5--7-7-7-7-|
E|--4/5-5-5-5-4/5-5-5-5-5-|------------------|

Chorus:

G|----------------------------------|
D|----------------------------------|
A|----------5-5-5-5---------7-7-7-7-|
E|--5-5-5-5---------5-5-5-5---------|

Bridge?
G|----------------------------------------|
D|--5--------3--------5--------3----------|
A|---5-5-5-5--3-3-3-3--5-5-5-5--3-3-3-3-3-|
E|----------------------------------------|

Variacao:

G|------------------|---------------------------|
D|------------------|---------------------------|
A|------------------|---------5-5-5-5--7-7-7-7--|
E|-2-2-2-2--5-5-5-5-|-2-2-2-2-------------------|
            

comments powered by Disqus
↑ Back to top | Ramones Bass for Rockaway Beach. Lyrics for acoustic guitar and electric guitar. Tablatures and chords are parodies/interpretations of the original songs. You may use it for private study, scholarship, research or language learning purposes only