» » »

Outsider Bass tabs (ver.2)

Artists:  A B C D E F G H I J K L M N O P Q R S T U V W X Y Z # 

Outsider Bass tabs (ver.2)

Ramones
Rating:
0/5 (0 votes)
Tabs too difficult? Try these video lessons and learn fast.
                Verse
   A                 G      
G|-----------------------------------|
D|-----------------------------------|
A|-----------------------------------|
E|-5-5-5-5-5-5-5-5-5-3-3-3-3-3-3-3-3-|

Post-Verse/Chorus
   A                G  G
G|------------------------|
D|------------------------|
A|------------------------|
E|-5-5-5-5-5-5-5-5--3--3--|

Chorus
   G               A
G|---------------------------------|
D|---------------------------------|
A|---------------------------------|
E|-3-3-3-3-3-3-3-3-5-5-5-5-5-5-5-5-|

Bridge
   F#       C#      B             x4 F#
G|----------------------------------|-----------------|
D|-4-4-4-4--------------------------|-----------------|
A|----------4-4-4-4-2-2-2-2-2-2-2-2-|-----------------|
E|----------------------------------|-2-2-2-2-2-2-2-2-|


Order

Verse
Post-Verse/Chorus x2
Verse
Chorus
Post-Verse/Chorus x4
Bridge
Chorus
Verse
Post-Verse/Chorus x3
            
Tabs too difficult? Try these video lessons and learn fast.


comments powered by Disqus
↑ Back to top | Tablatures and chords are parodies/interpretations of the original songs. You may use it for private study, scholarship, research or language learning purposes only