» » »

Ramones, Loud Mouth Chords (ver.1)

Artists:  A B C D E F G H I J K L M N O P Q R S T U V W X Y Z # 

Loud Mouth Chords (ver.1)

Ramones Tabs
 Rating:
4/5 (4 votes)
Loud Mouth lessons Tabs too difficult? Try these video lessons and learn fast
                (this is all my own work)this is a real easy song to play. for the live version of this song 
play ending 1 three(3) tmes and then go to ending 2
for the album version repeat ending 1 over and over
and fade out. now thats easy. ENJOY!

--x4------------------|-----x2--------|----x2---------|-----------------------
----------------------|---------------|---------------|-----------------------
------------99--------|--7-9----------|--7-9----------|-----------------------
--77777777--99--9999--|--7-9-99999999-|--7-9-77777777-|-----------------------
--77777777--77--9999--|--5-7-99999999-|--5-7-77777777-|-----------------------
--55555555------7777--|------77777777-|------55555555-|-----------------------
      chorus:                       lyrics: well your a loud ...              

-----x4------------|------------------------------|--------|------------------
-------------------|------------------------------|--------|------------------
--999------777-----|---999------777------555------|--------|------------------
--999-999--777-777-|---999-999--777-777--555-555--77777777-|----7-------------
--777-999--555-777-|---777-999--555-777--333-555--77777777-|----7-------------
------777------555-|-------777------555------333--55555555-|----5-------------
                        ending 1 (up)                          ending 2 (up)
            
Submit corrections

comments powered by Disqus
↑ Back to top | Ramones Chords for Loud Mouth. Lyrics for acoustic guitar and electric guitar. Tablatures and chords are parodies/interpretations of the original songs. You may use it for private study, scholarship, research or language learning purposes only