>
 >
Locket Love

Locket Love Bass Tabs

Ramones - Locket Love chords, tabs, tablatures, lyrics

Guitar lessons | Add/correct | Request | Top 50 tabs Artists:  A B C D E F G H I J K L M N O P Q R S T U V W X Y Z 0-9

Locket Love Bass Tabs – Ramones

CD, Sheet music, Poster

Do you like Locket Love? Share with your friends now
Bass TabsChordsUkulele
Intro
G-----------------------------------------------------------------|
D-----------------------------------------------------------------|
A-7-7-7-7---------5-5-5-5-7-7-7-7-7-7-7-7---------5-5-5-5-7-7-7-7-|
E---------5-5-5-5-------------------------5-5-5-5-----------------|

Verse
G-----------------------------------------------------------------|
D-----------------------------------------------------------------|
A-5-5-5-5-5-5-5-5-5-5-5-5-5-5-5-5-7-7-7-7-7-7-7-7-7-7-7-7-7-7-7-7-|
E-----------------------------------------------------------------|

G-----------------------------------------------------------------|
D-----------------------------------------------------------------|
A-5-5-5-5-5-5-5-5-5-5-5-5-5-5-5-5-7-7-7-7-7-7-7-7-7-7-7-7-7-7-7-7-|
E-----------------------------------------------------------------|

Chorus
G-----------------------------------------------------------------|
D-----------------------------------------------------------------|
A---------------------------------5-5-5-5-5-5-5-5-5-5-5-5-5-5-5-5-|
E-5-5-5-5-5-5-5-5-5-5-5-5-5-5-5-5---------------------------------|

G-----------------------------------------------------------------|
D-----------------------------------------------------------------|
A---------------------------------5-5-5-5-5-5-5-5-5-5-5-5-5-5-5-5-|
E-5-5-5-5-5-5-5-5-5-5-5-5-5-5-5-5---------------------------------|

Intro
G-----------------------------------------------------------------|
D-----------------------------------------------------------------|
A-7-7-7-7---------5-5-5-5-7-7-7-7-7-7-7-7---------5-5-5-5-7-7-7-7-|
E---------5-5-5-5-------------------------5-5-5-5-----------------|

Verse
G-----------------------------------------------------------------|
D-----------------------------------------------------------------|
A-5-5-5-5-5-5-5-5-5-5-5-5-5-5-5-5-7-7-7-7-7-7-7-7-7-7-7-7-7-7-7-7-|
E-----------------------------------------------------------------|

G-----------------------------------------------------------------|
D-----------------------------------------------------------------|
A-5-5-5-5-5-5-5-5-5-5-5-5-5-5-5-5-7-7-7-7-7-7-7-7-7-7-7-7-7-7-7-7-|
E-----------------------------------------------------------------|

Chorus
G-----------------------------------------------------------------|
D-----------------------------------------------------------------|
A---------------------------------5-5-5-5-5-5-5-5-5-5-5-5-5-5-5-5-|
E-5-5-5-5-5-5-5-5-5-5-5-5-5-5-5-5---------------------------------|

G-----------------------------------------------------------------|
D-----------------------------------------------------------------|
A---------------------------------5-5-5-5-5-5-5-5-5-5-5-5-5-5-5-5-|
E-5-5-5-5-5-5-5-5-5-5-5-5-5-5-5-5---------------------------------|

Intro
G-----------------------------------------------------------------|
D-----------------------------------------------------------------|
A-7-7-7-7---------5-5-5-5-7-7-7-7-7-7-7-7---------5-5-5-5-7-7-7-7-|
E---------5-5-5-5-------------------------5-5-5-5-----------------|

Bridge
G-----------------------------------------------------------------|
D-----------------------------------------------------------------|
A-5-5-5-5-5-5-5-5-5-5-5-5-5-5-5-5---------------------------------|
E---------------------------------5-5-5-5-5-5-5-5-5-5-5-5-5-5-5-5-|

G-----------------------------------------------------------------|
D-----------------------------------------------------------------|
A---------------------------------7-7-7-7-7-7-7-7-7-7-7-7-7-7-7-7-|
E-7-7-7-7-7-7-7-7-7-7-7-7-7-7-7-7---------------------------------|

Intro
G-----------------------------------------------------------------|
D-----------------------------------------------------------------|
A-7-7-7-7---------5-5-5-5-7-7-7-7-7-7-7-7---------5-5-5-5-7-7-7-7-|
E---------5-5-5-5-------------------------5-5-5-5-----------------|

Verse
G-----------------------------------------------------------------|
D-----------------------------------------------------------------|
A-5-5-5-5-5-5-5-5-5-5-5-5-5-5-5-5-7-7-7-7-7-7-7-7-7-7-7-7-7-7-7-7-|
E-----------------------------------------------------------------|

G-----------------------------------------------------------------|
D-----------------------------------------------------------------|
A-5-5-5-5-5-5-5-5-5-5-5-5-5-5-5-5-7-7-7-7-7-7-7-7-7-7-7-7-7-7-7-7-|
E-----------------------------------------------------------------|

Chorus
G-----------------------------------------------------------------|
D-----------------------------------------------------------------|
A---------------------------------5-5-5-5-5-5-5-5-5-5-5-5-5-5-5-5-|
E-5-5-5-5-5-5-5-5-5-5-5-5-5-5-5-5---------------------------------|

G-----------------------------------------------------------------|
D-----------------------------------------------------------------|
A---------------------------------5-5-5-5-5-5-5-5-5-5-5-5-5-5-5-5-|
E-5-5-5-5-5-5-5-5-5-5-5-5-5-5-5-5---------------------------------|

Intro
G-----------------------------------------------------------------|
D-----------------------------------------------------------------|
A-7-7-7-7---------5-5-5-5-7-7-7-7-7-7-7-7---------5-5-5-5-7-7-7-7-|
E---------5-5-5-5-------------------------5-5-5-5-----------------|

Bridge
G-----------------------------------------------------------------|
D-----------------------------------------------------------------|
A-5-5-5-5-5-5-5-5-5-5-5-5-5-5-5-5---------------------------------|
E---------------------------------5-5-5-5-5-5-5-5-5-5-5-5-5-5-5-5-|

G-----------------------------------------------------------------|
D-----------------------------------------------------------------|
A---------------------------------7-7-7-7-7-7-7-7-7-7-7-7-7-7-7-7-|
E-7-7-7-7-7-7-7-7-7-7-7-7-7-7-7-7---------------------------------|

Intro
G-----------------------------------------------------------------|
D-----------------------------------------------------------------|
A-7-7-7-7---------5-5-5-5-7-7-7-7-7-7-7-7---------5-5-5-5-7-7-7-7-|
E---------5-5-5-5-------------------------5-5-5-5-----------------|

Verse
G-----------------------------------------------------------------|
D-----------------------------------------------------------------|
A-5-5-5-5-5-5-5-5-5-5-5-5-5-5-5-5-7-7-7-7-7-7-7-7-7-7-7-7-7-7-7-7-|
E-----------------------------------------------------------------|

G-----------------------------------------------------------------|
D-----------------------------------------------------------------|
A-5-5-5-5-5-5-5-5-5-5-5-5-5-5-5-5-7-7-7-7-7-7-7-7-7-7-7-7-7-7-7-7-|
E-----------------------------------------------------------------|

Chorus
G-----------------------------------------------------------------|
D-----------------------------------------------------------------|
A---------------------------------5-5-5-5-5-5-5-5-5-5-5-5-5-5-5-5-|
E-5-5-5-5-5-5-5-5-5-5-5-5-5-5-5-5---------------------------------|

G-----------------------------------------------------------------|
D-----------------------------------------------------------------|
A---------------------------------5-5-5-5-5-5-5-5-5-5-5-5-5-5-5-5-|
E-5-5-5-5-5-5-5-5-5-5-5-5-5-5-5-5---------------------------------|

Outro
G-----------------------------------------------------------------|
D-----------------------------------------------------------------|
A-7-7-7-7---------5-5-5-5-7-7-7-7-7-7-7-7---------5-5-5-5-7-7-7-7-|
E---------5-5-5-5-------------------------5-5-5-5-----------------|

G-----------------------------------------------------------------|
D-----------------------------------------------------------------|
A-7-7-7-7---------5-5-5-5-7-7-7-7-7-7-7-7---------5-5-5-5-7-------|
E---------5-5-5-5-------------------------5-5-5-5-----------------|





Comments


Popular Ramones tabs & chords
Animal Boy Bass Tabs
Blietzkrieg Bob Bass Tabs
California Sun Bass Tabs
You're Gonna Kill That Girl 1 Bass Tabs
Dont Worry About Me Chords
Garden Of Serenity Chords
I Wanna Be Your Boyfriend Chords
Animal Boy Tabs
I Dont Wanna Go Down To The Basement Tabs
Ramones Live Tabs


Song lyrics



↑ Back to top | Tablatures and chords are parodies/interpretations of the original songs. You may use it for private study, scholarship, research or language learning purposes only
© 2014 AZChords.com Contact us | Privacy policy | DMCA | Add/correct tabs | Request tabs | Top 50 tabs