» » »

Let's Go Bass tabs (ver.1)

Artists:  A B C D E F G H I J K L M N O P Q R S T U V W X Y Z # 

Let's Go Bass tabs (ver.1)

Ramones
Rating:
0/5 (0 votes)

Tabs too difficult? Try these video lessons and learn fast.
                Intro/Verse

G |-----------------------------------------------------------------------|
D |-----------------------------------------------------------------------|
A |----------5--5-7--777-x3----------555-----------then repeat all--------|
E |-5-5-5555-------------------5--55-----55555555-------------------------|


Chorus

|-------------------------------------------------------------------------|
|-------------------------------------------------------------------------|
|-5-5-5-5-5-5-5-5-------------5-5-7-7-------------------------------------|
|-----------------5-5-5-5-5-5---------------------------------------------|

|-------------------------------------------------------------------------|
|-------------------------------------------------------------------------|
|-5-5-5-5-5-5-5-5-5-5-5-5-5-5-5-5--------------------------5-5-7-7--------|
|---------------------------------7-7-7-7-7-7-7-7-7-7-7-------------------|

This is all that is played through-out the whole song, you just repeat this a few times 
thats it! enjoy!
            
Tabs too difficult? Try these video lessons and learn fast.




comments powered by Disqus
↑ Back to top | Tablatures and chords are parodies/interpretations of the original songs. You may use it for private study, scholarship, research or language learning purposes only