>
 >
I Wanna Live 2

I Wanna Live 2 Guitar Tabs

Ramones - I Wanna Live 2 chords, tabs, tablatures, lyrics

Guitar lessons | Add/correct | Request | Top 50 tabs Artists:  A B C D E F G H I J K L M N O P Q R S T U V W X Y Z 0-9

I Wanna Live 2 Guitar Tabs – Ramones

CD, Sheet music, Poster

Do you like I Wanna Live 2? Share with your friends now
Bass TabsChordsDrum TabsTabsTabs v2Tabs v3Ukulele
-------------------------------------------------------------------------------
                             I WANNA LIVE - The Ramones
-------------------------------------------------------------------------------

Tunning: EADGBe(Standard)

Intro
e---------------------------|
B---------------------------|
G----------------5-----7----|
D-----2------5--5-----7-----|
A---2------5---3---5--------|
E-0------3------------------|

Lead Fill 1
e-----------------------------|
B-7---7-7---7-7---~~~---------|
G-9b11--9b11--9b11~~~9-9p7----|
D--------------------------9--|
A-----------------------------|
E-----------------------------|

Verse
e---------------------------------|
B---------------------------------|
G---------------------------------|
D-9999-12121212-------------------|
A-7777-10101010-101010--12-121212-|
E----------------8-8-8--10-101010-|

Pre-chorus
e--------------------------------------------------------------------|
B--------------------------------------------------------------------|
G--------------------------------------------------------------------|
D--------------------------------1212121212121212--------------------|
A-101010101010101010101010101010-1010101010101010-1212121212121212---|
E--8-8-8-8-8-8-8-8-8-8-8-8-8-8-8------------------1010101010101010---|
Pre-chorus ending
e------------------------------------------------------------------|
B------------------------------------------------------------------|
G------------------------------------------------------------------|
D--------------------------------1212121212121212------------------|
A-101010101010101010101010101010-1010101010101010--12-12-12-12-12--|
E--8-8-8-8-8-8-8-8-8-8-8-8-8-8-8-------------------10-10-10-10-10--|

Pre-Chorus Lead
e---------------------------------|
B-------12-10---------10---12-10--|
G-12-12---------12-12---9---------|
D---------------------------------|
A---------------------------------|
E---------------------------------|
Pre-Chorus Lead ending
e---------------------------------|
B-------12-10---------------------|
G-12-12---------12-12-12-12-12----|
D---------------------------------|
A---------------------------------|
E---------------------------------|

Chorus
e---------------------------|
B---------------------------|
G---------------------------|
D----------5555-7777--------|
A-222-5555-3333-5555--------|
E-000-3333------------------|

Chorus Lead
e-----------------------------|
B-----------------------------|
G-----------------------------|
D-----------------------------|
A-7~~~9h10-9-7~~~9h10-9-------|
E-----------------------------|

Lead Fill 1

Verse

Lead Fill 2
e------------------|
B-7----7---~~~~----|
G-9b11-9b11~~~~----|
D------------------|
A------------------|
E------------------|

Lead Fill 3
e---------|
B---------|
G-9p7-----|
D------9--|
A---------|
E---------|

Pre-chorus (w/lead)

Chorus (w/lead)

Rythm Fill
e--------------------|
B--------------------|
G-9999999999999999---|
D-9999999999999999---|
A-7777777777777777---|
E--------------------|

Pre-chorus (w/lead)

Chorus (w/lead)

Lead Fill 1

Lead Fill 4
e-12---12--12---~~~~~~--|
B-15b17----15b17~~~~~~--|
G-----------------------|
D-----------------------|
A-----------------------|
E-----------------------|

Ending
e--------|
B--------|
G-9------|
D-9------|
A-7------|
E--------|

Lead Ending
e--------|
B--------|
G--------|
D--------|
A-7b-----|
E--------|  Keep on slowly bending that note untill the end.

Order:

Intro 4 times              Lead Fill1 1 time
verse 8 times
Pre-chorus 1 time          Pre-Chorus Lead 3 times
Pre-chorus ending 1 time   Pre-Chorus Lead ending 1 time
Chorus 4 times             Chorus Lead 4 times
                           Lead Fill1 1 time
verse 8 times              Lead fill2 1 time
                           Lead fill3 1 time
Pre-chorus 1 time          Pre-Chorus Lead 3 times
Pre-chorus ending 1 time   Pre-Chorus Lead ending 1 time
Chorus 4 times             Chorus Lead 4 times
                           Lead Fill1 1 time
Rythm fill 1 time
Pre-chorus 1 time          Pre-Chorus Lead 3 times
Pre-chorus ending 1 time   Pre-Chorus Lead ending 1 time
Chorus 4 times             Chorus Lead 4 times
                           Lead Fill1 1 time
Chorus 4 times             Lead fill4 1 time
Ending                     Lead Ending





Comments


Popular Ramones tabs & chords
Endless Vacation 2 Bass Tabs
I Believe In Miracles 2 Bass Tabs
Listen To My Heart Bass Tabs
Anxiety Chords
Making Monsters For My Friends Chords
Blitzrieg Bop Tabs
I Just Want To Have Something To Do Tabs
Pet Semetary Tabs
Sheena Is A Punk Rocker Tabs
Shes The One Tabs


Song lyrics



↑ Back to top | Tablatures and chords are parodies/interpretations of the original songs. You may use it for private study, scholarship, research or language learning purposes only
© 2014 AZChords.com Contact us | Privacy policy | DMCA | Add/correct tabs | Request tabs | Top 50 tabs