» » »

Ramones, I Wanna Be Your Boyfriend Tabs (ver.1)

Artists:  A B C D E F G H I J K L M N O P Q R S T U V W X Y Z # 

I Wanna Be Your Boyfriend Tabs (ver.1)

Ramones Tabs
 Rating:
4/5 (4 votes)
I Wanna Be Your Boyfriend lessons Tabs too difficult? Try these video lessons and learn fast
1
                
intro
-----------------------------
-----------------------------
---9-9-9-9-9-9---------------
---9-9-9-9-9-9--7-7--9-9-9---
---7-7-7-7-7-7--7-7--9-9-9---
----------------5 5--7-7-7---

verse:
-----------------------------
-----------------------------
---9-9-9-9-9-9---------------
---9-9-9-9-9-9--7-7--9-9-9---
---7-7-7-7-7-7--7-7--9-9-9---
----------------5 5--7-7-7---

Chorus:


------------------------------
------------------------------
------------------------------
---6-6-6-6-6-6----------------
---6-6-6-6-6-6--7-7-7-7-7-7---
---4-4-4-4-4-4--7-7-7-7-7-7---
----------------5-5-5-5-5-5---

verse:
-----------------------------
-----------------------------
---9-9-9-9-9-9---------------
---9-9-9-9-9-9--7-7--9-9-9---
---7-7-7-7-7-7--7-7--9-9-9---
----------------5 5--7-7-7---

then fade out with the intro like this


intro
-----------------------------
-----------------------------
---9-9-9-9-9-9---------------
---9-9-9-9-9-9--7-7--9-9-9---
---7-7-7-7-7-7--7-7--9-9-9---
----------------5 5--7-7-7---
            
Submit corrections

comments powered by Disqus
↑ Back to top | Ramones Tabs for I Wanna Be Your Boyfriend. Lyrics for acoustic guitar and electric guitar. 1 Tablatures and chords are parodies/interpretations of the original songs. You may use it for private study, scholarship, research or language learning purposes only