» » »

I Dont Want To Go To The Basement Bass tabs (ver.1)

Artists:  A B C D E F G H I J K L M N O P Q R S T U V W X Y Z # 

I Dont Want To Go To The Basement Bass tabs (ver.1)

Ramones
Rating:
0/5 (0 votes)

Tabs too difficult? Try these video lessons and learn fast.
                The Ramones
I Don’t Want To Go To The Basement


R = Rest

Tempo: E = 177bpm


Intro/chorus
    E   E   S  S  E   S  S  S  E   S  S  S    E   E   S  S  E   S  S  S  E   S  S  S
G||-----------------------------------------|-----------------------------------------|
D||-14--14------------14-14-14--------------|-12--12------------12-12-12--------------|
A||---------14-14-14-----------14--14-14-14-|---------12-12-12-----------12--12-12-12-|
E||-----------------------------------------|-----------------------------------------|

    E   E   S  S  E   S  S  S  E   S  S  S     S S S S S S S S S S S S E  E
G||-----------------------------------------|--------------------------------|
D||-10--10------------10-10-10--------------|*-6-7-7-7-6-7-7-7-6-7-7-7------*|
A||---------10-10-10-----------10--10-10-10-|*-------------------------7--5-*|
E||-----------------------------------------|--------------------------------|
                                                                            4x


Verse
    E  S S S S S S S S S E  S S S   E  S S S S S S S S S E  S S S
G||--------------------------------|--------------------------------|
D||*-------------------------------|-------------------------------*|
A||*-7--7-7-7-7-7-7-------7--7-7-7-|-5--5-5-5-5-5-5-------5--5-5-5-*|
E||-----------------7-7-7----------|----------------5-5-5-----------|
                                                                   4x

Break
     S  S  S  S  S  S  S  S  S  S  S  S  E  E
G||----------------------------------------------|
D||*--------------------------------------------*|
A||*-11-12-12-12-11-12-12-12-11-12-12-12-8--10--*|
E||----------------------------------------------|
                                                4x

Chorus
Verse
Break
Chorus
Verse
Break

Outro
    E   E   S  S  E   S  S  S  S  Q
G||------------------------------------|
D||-14--14------------14-14-14---------|
A||---------14-14-14-----------14-R----|
E||------------------------------------|
            
Tabs too difficult? Try these video lessons and learn fast.




comments powered by Disqus
↑ Back to top | Tablatures and chords are parodies/interpretations of the original songs. You may use it for private study, scholarship, research or language learning purposes only