» » »

I Cant Give You Anything Bass tabs (ver.1)

Artists:  A B C D E F G H I J K L M N O P Q R S T U V W X Y Z # 

I Cant Give You Anything Bass tabs (ver.1)

Ramones
Rating:
0/5 (0 votes)

Tabs too difficult? Try these video lessons and learn fast.
                Main Riff      x2
G----------------|
D----------------|
A-3-3-----3------|
E-----1-1----3-3-|

Verse                                                 x3 
G---------------------------------|---------------------|
D---------------------------------|---------------------|
A---------------------------------|---------------3-----|
E-3-3-3-3-3-3-3-3-1-1-1-1-1-1-1-1-|-3-3-3-3-3-3-------3-|

Main Riff      x2
G----------------|
D----------------|
A-3-3-----3------|
E-----1-1----3-3-|

Verse                                                 x3 
G---------------------------------|---------------------|
D---------------------------------|---------------------|
A---------------------------------|---------------3-----|
E-3-3-3-3-3-3-3-3-1-1-1-1-1-1-1-1-|-3-3-3-3-3-3-------3-|

Main Riff      x2
G----------------|
D----------------|
A-3-3-----3------|
E-----1-1----3-3-|

Bridge ("You think that i'm real cute...")
G-----------------|-----------------|-----------------|-----------------|
D-----------------|-----------------|-----------------|-----------------|
A-----3-3---------|-----3-3---------|-----3-3---------|-----3-3---------|
E-1-1-----3---3-3-|-1-1-----3---3-3-|-1-1-----3---3-3-|-1-1-----3---3-3-|

Main Riff      x4
G----------------|
D----------------|
A-3-3-----3------|
E-----1-1----3-3-|

Verse                                                 x3 
G---------------------------------|---------------------|
D---------------------------------|---------------------|
A---------------------------------|---------------3-----|
E-3-3-3-3-3-3-3-3-1-1-1-1-1-1-1-1-|-3-3-3-3-3-3-------3-|

Main Riff      x2
G----------------|
D----------------|
A-3-3-----3------|
E-----1-1----3-3-|

Bridge ("You think i'm kinda real cute...")
G-----------------|-----------------|-----------------|-----------------|
D-----------------|-----------------|-----------------|-----------------|
A-----3-3---------|-----3-3---------|-----3-3---------|-----3-3---------|
E-1-1-----3---3-3-|-1-1-----3---3-3-|-1-1-----3---3-3-|-1-1-----3---3-3-|

Main Riff      x8
G----------------|
D----------------|
A-3-3-----3------|
E-----1-1----3-3-|
            
Tabs too difficult? Try these video lessons and learn fast.




comments powered by Disqus
↑ Back to top | Tablatures and chords are parodies/interpretations of the original songs. You may use it for private study, scholarship, research or language learning purposes only