» » »

Garden Of Serenity Tabs (ver.1)

Artists:  A B C D E F G H I J K L M N O P Q R S T U V W X Y Z # 

Garden Of Serenity Tabs (ver.1)

Ramones
Rating:
0/5 (0 votes)

Hard to play? Try these video lessons and learn fast.
                GARDEN OF SERENITY
Intro x2
e|---------------------------------------------------------------------------|
B|---------------------------------------------------------------------------|
G|-----7----7----7----7------------------------------------------------------|
D|---7----7----7----7--------------------------------------------------------|
A|-5----8----7---10----------------------------------------------------------|
E|---------------------------------------------------------------------------|

Verse
e|---------------------------------------------------------------------------|
B|---------------------------------------------------------------------------|
G|-777777777777777--10101010101010101010-------------------------------------|
D|-777777777777777--10101010101010101010---10101010101010101010--------------|
A|-555555555555555---8-8-8-8-8-8-8-8-8-8---10101010101010101010--------------|
E|------------------------------------------8-8-8-8-8-8-8-8-8-8--------------|

Chorus
e|---------------------------------------------------------------------------|
B|---------------------------------------------------------------------------|
G|-7777--10101010--9999-77---------------------------------------------------|
D|-7777--10101010--9999-77---------------------------------------------------|
A|-5555---8-8-8-8--7777-55---------------------------------------------------|
E|---------------------------------------------------------------------------|

Bridge
e|---------------------------------------------------------------------------|
B|---------------------------------------------------------------------------|
G|-7~---7~------then play intro x4-------------------------------------------|
D|-7~---7~-------------------------------------------------------------------|
A|-5~---5~-------------------------------------------------------------------|
E|---------------------------------------------------------------------------|
            
Hard to play? Try these video lessons and learn fast. | Correct




comments powered by Disqus
↑ Back to top | Tablatures and chords are parodies/interpretations of the original songs. You may use it for private study, scholarship, research or language learning purposes only