» » »

Ramones, Durango Bass tabs (ver.1)

Artists:  A B C D E F G H I J K L M N O P Q R S T U V W X Y Z # 

Durango Bass tabs (ver.1)

Ramones Tabs
 Rating:
4/5 (4 votes)
Durango lessons Tabs too difficult? Try these video lessons and learn fast

WWW.AZCHORDS.COM | Ramones Bass tabs - Durango Bass tabs (ver. 1)


INTRO/VERSE
E8-8-8-8-8-8-8-8-----------------8-8-8-8-8-8-8-8---------------
A---------------6-6-6-6-6-6-6-6-6---------------6-6-6-6-6-6-6-6
D--------------------------------------------------------------
G--------------------------------------------------------------

E8-8-8-8-8-8-8-------------------8-8-8-8-8-8-8-8-8-----------------6---8----
A--------------6-6-6-6-6-6-6-6-6-------------------6-6-6-6-6-6-6-6---8------
D---------------------------------------------------------------------------
G---------------------------------------------------------------------------

JUST LISTEN TO THE SONG YOU WILL GET THE WHOLE THING.
IF YOU WANT ME TO TAB A RAMONES SONG FOR YOU EMAIL ME
            
Submit corrections

↑ Back to top | Ramones Bass for Durango. Lyrics for acoustic guitar and electric guitar. Tablatures and chords are parodies/interpretations of the original songs. You may use it for private study, scholarship, research or language learning purposes only