» » »

Ramones, Daytime Dilemma Tabs (ver.1)

Artists:  A B C D E F G H I J K L M N O P Q R S T U V W X Y Z # 

Daytime Dilemma Tabs (ver.1)

Ramones Tabs
Rating:
0/5 (0 votes)
Daytime Dilemma lessons Tabs too difficult? Try these video lessons and learn fast
                
DAYTIME DILEMMA

INTRO AND CHORUS

6--6-6-6-6-6-------------------------------------------------
5--8-8-8-8-8--8-6-6-6-6-6-6--5-3-3-3-3-3-3--10-8-8-8-8-8-8---
4--8-8-8-8-8--108-8-8-8-8-8--7-5-5-5-5-5-5--12-101010101010--
3-------------108-8-8-8-8-8--7-5-5-5-5-5-5--12-101010101010--  x3
2------------------------------------------------------------
1------------------------------------------------------------

6----------------------
5--8-8-8-8-8-8-8-8-8---
4--101010101010101010--
3--101010101010101010--
2----------------------
1----------------------

VERSE

p.m.--------------
6--6-6-6-6-6-6-6-6--6-----------------
5--8-8-8-8-8-8-8-8--8--6-6-6-6--8-8---
4-------------------8--8-8-8-8--1010--
3----------------------8-8-8-8--1010--  x2
2-------------------------------------
1-------------------------------------

PRE CHORUS

6-------------------------------------------------------------------------------
5--6-6-6-6-6--8-8-8-8-8--8-8-8-8-8--10-10-10-10-10-10-10--6-6-6-6-6-6--8-8-8-8--
4--8-8-8-8-8--1010101010-1010101010-12-12-12-12-12-12-12--8-8-8-8-8-8--10101010-
3--8-8-8-8-8--1010101010-1010101010-12-12-12-12-12-12-12--8-8-8-8-8-8--10101010-
2-------------------------------------------------------------------------------
1-------------------------------------------------------------------------------

then repeat another verse and then the chorus and then.....

INTERLUDE

6--10-10-10--10-10-10----------------------10-10-10-10-10-10-10-10-10--
5--12-12-12--12-12-12--10-10-10--10-10-10--12-12-12-12-12-12-12-12-12--
4--12-12-12--12-12-12--12-12-12--12-12-12--12-12-12-12-12-12-12-12-12--
3----------------------12-12-12--12-12-12------------------------------
2----------------------------------------------------------------------
1----------------------------------------------------------------------

6--13-13-13-13-13-13-13-13-13-13-13--12/13-13-13---
5--15-15-15-15-15-15-15-15-15-15-15--14/15-15-15---
4--15-15-15-15-15-15-15-15-15-15-15--14/15-15-15---
3------------------------------------------------x4
2--------------------------------------------------
1--------------------------------------------------

then repeat another chorus and then........

6--3---3------------------------
5--5---5--5-5-5-5-5-5-5-5-5-5---
4--5---5--7-7-7-7-7-7-7-7-7-7---
3---------7-7-7-7-7-7-7-7-7-7---  x2
2-------------------------------
1-------------------------------

and then repeat the last chorus  x2.
            

comments powered by Disqus
↑ Back to top | Ramones Tabs for Daytime Dilemma. Lyrics for acoustic guitar and electric guitar. Tablatures and chords are parodies/interpretations of the original songs. You may use it for private study, scholarship, research or language learning purposes only