» » »

Ramones, Cretin Hop Tabs (ver.1)

Artists:  A B C D E F G H I J K L M N O P Q R S T U V W X Y Z # 

Cretin Hop Tabs (ver.1)

Ramones Tabs
Rating:
0/5 (0 votes)
Cretin Hop lessons Tabs too difficult? Try these video lessons and learn fast
                I noticed no one else on mxtabs had this song up yet for guitar, so here it is, enjoy! :

         Verse 1
E|--------------------------------------------------------------------------------------------------------------------
B|--------------------------------------------------------------------------------------------------------------------
G|----999999999999--7-7------------------------------------------------------------------------------------
D|----999999999999--7-7------------------------------------------------------------------------- x 4
A|----777777777777--5-5------------------------------------------------------------------------------------
E|-------------------------------------------------------------------------------------------------------------------
          Verse 2
E|-------------------------------------------------------------------
B|--------------------------------------------------------------------
G|----------------------9999999999999999----------------
D|---7777777777777777---9999999999999999---- x 2
A|---7777777777777777---7777777777777777----
E|---5555555555555555------------------------------------
          Verse 3
E|-----------------------------------------------------------------------
B|-----------------------------------------------------------------------
G|---------------99999999------------------------------------------
D|----99999999---99999999----------------------------- x 2
A|----99999999---77777777------------------------------------
E|----77777777----------------------------------------------------

Now play Verse 1 again, then Verse 2 again, then play this:

        Verse 4
E|--------------------------------------------------------------------------------------------------------------
B|--------------------------------------------------------------------------------------------------------------
G|------------------------------------------------------------------------------------------------------------
D|---2---7--22222222---7-7-------------------------------------------------------------------- x 2
A|---2---7--22222222---5-5-------------------------------------------------------------------------------
E|---0---5--00000000-----------------------------------------------------------------------------------------

Vocal Part
Verse 4 x 1
Vocal Part
Verse 4 x 2
Verse 2
Verse 3
Verse 2
Verse 3
Verse 4 x2
Vocal Part
Verse 4 x1
Vocal Part 
Verse 4 x4

Then end on:

D|----2-------
A|----2--------
E|----0--------

Really easy, but really fun to play!
            

comments powered by Disqus
↑ Back to top | Ramones Tabs for Cretin Hop. Lyrics for acoustic guitar and electric guitar. Tablatures and chords are parodies/interpretations of the original songs. You may use it for private study, scholarship, research or language learning purposes only