» » »

Ramones, Cretin Family Tabs (ver.1)

Artists:  A B C D E F G H I J K L M N O P Q R S T U V W X Y Z # 

Cretin Family Tabs (ver.1)

Ramones Tabs
 Rating:
4/5 (4 votes)
Cretin Family lessons Tabs too difficult? Try these video lessons and learn fast
                
I’m not clamming this to be 100% correct as its on the 3rd tab I have done
And it is far from perfect but see what you can do with it.


Intro:

E---------------------------------|
A---------------------------------|
D-----------------------1-8-------| x2
G------12121212121212-3-2-8-12----|
B------12121212121212-3-2-6-12----|
E------10101010101010-1-----10----|


Verse Riffs 


Riff 1             

  
E-----------------------|
A-----------------------|
D------8----------8-----| x2
G-12---8-----12---8-----|
B-12---6-----12---6-----|
E-10---------10---------|


Riff 2
After playing riff 1 twice you play this twice

E-------------------|
A-------------------|
D---5-------5-------|
G---5--12---5---10--|
B---3--12---3---12--|
E------10-------12--|

Chorus:

E---------------------------------|
A---------------------------------|
D-----------------------1-8-------| x2
G------12121212121212-3-2-8-12----|
B------12121212121212-3-2-6-12----|
E------10101010101010-1-----10----|


Outro:
this is the bit where CJ is shouting "EVERYONE'S AGAINST ME! OI OI OI OI "

E-------------------|
A-------------------|
D--8-------8--------|
G--8---12--8--12----|
B--6---12--6--12----|
E------10-----10----|



i hope someone can do something with this
            
Submit corrections

comments powered by Disqus
↑ Back to top | Ramones Tabs for Cretin Family. Lyrics for acoustic guitar and electric guitar. Tablatures and chords are parodies/interpretations of the original songs. You may use it for private study, scholarship, research or language learning purposes only