» » »

Chinese Rocks Tabs (ver.1)

Artists:  A B C D E F G H I J K L M N O P Q R S T U V W X Y Z # 

Chinese Rocks Tabs (ver.1)

Ramones
Rating:
0/5 (0 votes)

Hard to play? Try these video lessons and learn fast.
                Tuning: E-A-D-G-B-E (Standard)

Opening
E-------------------------------------
B-------------------------------------
G-----------3-5-5-5-5-----------------
D-3-5-5-5-5-3-5-5-5-5-----------------
A-3-5-5-5-5-1-3-3-3-3-----------------
E-1-3-3-3-3---------------------------

Verse
E-------------------------------------
B-------------------------------------
G-------------------------------------
D-3-5---------------------------------
A-3-5---------------------------------
E-1-3---------------------------------
  (Repeated over and over)

Chorus
E-------------------------------------
B-------------------------------------
G-7-7-2-2-----2-2---------------------
D-7-7-2-2-5-5-2-2---------------------
A-5-5-0-0-5-5-0-0---------------------
E---------3-3-------------------------
            
Hard to play? Try these video lessons and learn fast. | Correct




comments powered by Disqus
↑ Back to top | Tablatures and chords are parodies/interpretations of the original songs. You may use it for private study, scholarship, research or language learning purposes only