>
 >
Chain Saw 4

Chain Saw 4 Bass Tabs

Ramones - Chain Saw 4 chords, tabs, tablatures, lyrics

Guitar lessons | Add/correct | Request | Top 50 tabs Artists:  A B C D E F G H I J K L M N O P Q R S T U V W X Y Z 0-9

Chain Saw 4 Bass Tabs – Ramones

CD, Sheet music, Poster

Do you like Chain Saw 4? Share with your friends now
Bass TabsBass Tabs v2Bass Tabs v3Bass Tabs v4Tabs
The Ramones
Chainsaw


g = grace note

Tempo: 180bpm


Intro
    Q    E  E  E  E  E  E    Q  E E E E E E   Q   E  E  E  E  E  E
G||------------------------|----------------|-----------------------|
D||------------------------|----------------|-----------------------|
A||-9g1212-12-12-12-12-12\|-9--9-9-9-9-9-9\|-14--14-14-14-14-14-14-|
E||------------------------|----------------|-----------------------|

    E  E  E  E  E  E  E  E    Q   E  E  E  E  E  E    E E E E E E E E
G||-------------------------|-----------------------|-----------------|
D||-------------------------|-----------------------|-----------------|
A||-------------------------|-12--12-12-12-12-12-12-|-9-9-9-9-9-9-9-9\|
E||-12-12-12-12-12-12-12-12-|-----------------------|-----------------|

    E  E  E  E  E  E  E  E    E  E  E  E  E  E  E  E
G||-------------------------|-------------------------|
D||-------------------------|-------------------------|
A||-14-14-14-14-14-14-14-14-|-------------------------|
E||-------------------------|-12-12-12-12-12-12-12-12-|


Verse part1
    E  E  E  E  E  E  E  E    E E E E E E E E
G||-------------------------|-----------------|
D||*------------------------|----------------*|
A||*12-12-12-12-12-12-12-12-|-9-9-9-9-9-9-9-9*|
E||-------------------------|-----------------|
                                             2x

    E  E  E  E  E  E  E  E    E  E  E  E  E  E  E  E
G||-------------------------|-------------------------|
D||*------------------------|------------------------*|
A||*14-14-14-14-14-14-14-14-|------------------------*|
E||-------------------------|-12-12-12-12-12-12-12-12-|
                                                     2x

Verse part1

Verse variation
    E E E E E E E E   E E E E E E E E
G||-----------------|-----------------|
D||-----------------|-----------------|
A||-9-9-9-9-9-9-9-9-|-7-7-7-7-7-7-7-7-|
E||-----------------|-----------------|

Verse part1 2x
Verse variation




Break
    E E E E E E E E   E  E  E  E  E  E  E  E    E E E E E E E E   E E E E E E E E
G||-----------------|-------------------------|-----------------|-----------------|
D||*---------------*|*-----------------------*|*---------------*|*---------------*|
A||*7-7-7-7-7-7-7-7*|*12-12-12-12-12-12-12-12*|*7-7-7-7-7-7-7-7*|*9-9-9-9-9-9-9-9*|
E||-----------------|-------------------------|-----------------|-----------------|
                   2x                        2x                2x                2x

Verse part1 2x
Verse variation

End
    E  E  E  E  E  E  E  E    E E E E E E E E
G||-------------------------|-----------------|
D||*------------------------|----------------*|
A||*12-12-12-12-12-12-12-12-|-9-9-9-9-9-9-9-9*|
E||-------------------------|-----------------|
                                             7x





Comments


Popular Ramones tabs & chords
Bad Brain Bass Tabs
Glad To See You Go 2 Bass Tabs
Loudmouth 1 Bass Tabs
Swallow My Pride 2 Bass Tabs
Blitzkreig Bop Drum Tabs
53rd And 3rd Tabs
Do You Wanna Dance Tabs
I Just Want To Have Something To Do 2 Tabs
Love Kills Tabs
Havana Affair Ukulele


Song lyrics



↑ Back to top | Tablatures and chords are parodies/interpretations of the original songs. You may use it for private study, scholarship, research or language learning purposes only
© 2014 AZChords.com Contact us | Privacy policy | DMCA | Add/correct tabs | Request tabs | Top 50 tabs