» » »

Censorshit Tabs (ver.1)

Artists:  A B C D E F G H I J K L M N O P Q R S T U V W X Y Z # 

Censorshit Tabs (ver.1)

Ramones
Rating:
0/5 (0 votes)

Hard to play? Try these video lessons and learn fast.
                START
e|------------------------|
B|------------------------|
G|------------------------|
D|------------------------|
A|-7-7-7--7-7--7-7-7--7-7-|
E|-5-5-5--5-5--5-5-5--5-5-|


PART 1
e|------------------------------------|--------------------------------------|
B|------------------------------------|--------------------------------------|
G|------------------------------------|--------------------------------------|
D|------------------------------------|-------7-7-7--------------------------|
A|-7-7-7-7--7-7-7-7--7-7-7-7--7-7-7-7-|-7-7-7-5-5-5-7-7-7-7-7----------------|
E|-5-5-5-5--5-5-5-5--5-5-5-5--5-5-5-5-|-5-5-5-------5-5-5-5-5----------------|


PART 2
  tipper come on            aint you...on             ask ozzie...
e|-----------|-------------|-----------|-------------|------------|
B|-----------|-------------|-----------|-------------|------------|
G|-----------|-------------|-----------|-------------|------------|
D|-----------|-------------|-9-9-9-9-9-|-------------|-7-7-7-7-7--|
A|-2-2-2-2-0-|-7-7-7-7-7-7-|-7-7-7-7-7-|-7-7-7-7-7-7-|-5-5-5-5-5--|
E|-0-0-0-0-0-|-5-5-5-5-5-5-|-----------|-5-5-5-5-5-5-|------------|

  me...show you what its... free              tipper come on
e|-------------|-----------|-----------------|-----------|-------------|
B|-------------|-----------|-----------------|-----------|-------------|
G|-------------|-----------|-----------------|-----------|-------------|
D|-------------|-9-9-9-9-9-|-----------------|-9-9-9-9-9-|-------------|
A|-7-7-7-7-7-7-|-7-7-7-7-7-|-7-7-7-7-7-7-7-7-|-7-7-7-7-7-|-7-7-7-7-7-7-|
E|-5-5-5-5-5-5-|-----------|-5-5-5-5-5-5-5-5-|-----------|-5-5-5-5-5-5-|

  its just... real problems s & l defli-cit the home..the environ-
e|-----------|-------------|-----------|-------------|-------------|
B|-----------|-------------|-----------|-------------|-------------|
G|-----------|-------------|-----------|-------------|-------------|
D|-9-9-9-9-9-|-------------|-7-7-7-7-7-|-------------|-9-9--9-9-9--|
A|-7-7-7-7-7-|-7-7-7-7-7-7-|-5-5-5-5-5-|-7-7-7-7-7-7-|-7-7--7-7-7--|
E|-----------|-5-5-5-5-5-5-|-----------|-5-5-5-5-5-5-|-------------|

((*NOTE: parts 3 4 and 5 are the three different parts which follow PART 2 and
will be the end of the word "ENVIRON-MENT"  ))

PART 3
 -ment
e|-----------------------|--------------------------------------------|
B|-----------------------|--------------------------------------------|
G|-----------------------|--------------------------------------------|
D|-----------------------|-5-5-5-5-5-5-10-10-10-10-10-10-7-7-7-7-7-7--|
A|-7--5-7-5-7--7-5-7-5-7-|-3-3-3-3-3-3-8--8--8--8--8--8--5-5-5-5-5-5--|
E|-5--3-5-3-5--5-3-5-3-5-|--------------------------------------------|


PART 4
-ment
e|---------------|
B|---------------|
G|---------------|
D|-------------------------------------------------------------------------|
A|-7-7-7-7-7-7-7-7-------------5-5-5-5-5-5-7-7-7-7-7-7-7-7-7-7-7-7-3-3-3---|
E|-5-5-5-5-5-5-5-5-1-1-1-1-1-1-------------------------5-5-5-5-5-5-1-1-1---|

-ment
e|------------------------------------------------------------------------|
B|------------------------------------------------------------------------|
G|------------------------------------------------------------------------|
D|-------7-7-7-7-7-7-8-8-9-9-9-9-9-9-9-9-9-9-9-9-9-9-9-9-9-9-9-9-9-9-9-9--|
A|-3-3-3-5-5-5-5-5-5-6-6-7-7-7-7-7-7-7-7-7-7-7-7-7-7-7-7-7-7-7-7-7-7-7-7--|
E|-1-1-1------------------------------------------------------------------|

e|--------------|
B|--------------|
G|--------------|
D|--------------|
A|-7-7-7-7-7-7--|
E|-5-5-5-5-5-5--|


PART 5
 -ment
e|---------------|
B|---------------|
G|---------------|
D|---------------|
A|-7-7-7--7-7-7--|
E|-5-5-5--5-5-5--|

e|--------------------------------------------------------|
B|--------------------------------------------------------|
G|--------------------------------------------------------|
D|-5-5-5-5-5-5-10-10-10-10-10-10-7-7-7-7-7-7--------------|
A|-3-3-3-3-3-3-8--8--8--8--8--8--5-5-5-5-5-5--7-7-7-7-7-7-|
E|--------------------------------------------5-5-5-5-5-5-|

e|--------------------------------------------------------|
B|--------------------------------------------------------|
G|--------------------------------------------------------|
D|-5-5-5-5-5-5-10-10-10-10-10-10-7-7-7-7-7-7--------------|
A|-3-3-3-3-3-3-8--8--8--8--8--8--5-5-5-5-5-5--7-7-7-7-7-7-|
E|--------------------------------------------5-5-5-5-5-5-|

e|--------------------------------------------------------|
B|--------------------------------------------------------|
G|--------------------------------------------------------|
D|-5-5-5-5-5-5-10-10-10-10-10-10-7-7-7-7-7-7--------------|
A|-3-3-3-3-3-3-8--8--8--8--8--8--5-5-5-5-5-5--7-7-7-7-7-7-|
E|--------------------------------------------5-5-5-5-5-5-|

e|----------------------------------|
B|----------------------------------|
G|----------------------------------|
D|-5-5-5-5-5-5-10-10-10-10-10-10-7--|
A|-3-3-3-3-3-3-8--8--8--8--8--8--5--|
E|----------------------------------|

ORDER OF SONG:
START
PART 1 (*4)
PART 2
PART 3
PART 1 (*4)
PART 2
PART 4
PART 1 (*4)
PART 2
PART 5
            
Hard to play? Try these video lessons and learn fast. | Correct




comments powered by Disqus
↑ Back to top | Tablatures and chords are parodies/interpretations of the original songs. You may use it for private study, scholarship, research or language learning purposes only