» » »

Carbona Not Glue Tabs (ver.1)

Artists:  A B C D E F G H I J K L M N O P Q R S T U V W X Y Z # 

Carbona Not Glue Tabs (ver.1)

Ramones
Rating:
0/5 (0 votes)

Hard to play? Try these video lessons and learn fast.
                Carbona Not Glue by the Ramones
(standard tuning)


|-------------------------------------------------|
|-------------------------------------------------|
|-------------------------------------------------|
|-----------------------------------------------7-|
|-5/7--7-7-7-7--7-7-7-7--4/5--5-5-5-5--5-5-5-5--5-|
|-3/5--5-5-5-5--5-5-5-5--2/3--3-3-3-3--3-3-3-3----|
4 times


|---------------------------------------|------------------|
|---------------------------------------|------------------|
|---------------------------------------|------------------|
|----------------------7-7-7-7--7-7-7-7-|-7-7-7-7--7-7-7-7-|
|--5/7--7-7--5/7--7-7--5-5-5-5--5-5-5-5-|-5-5-5-5--5-5-5-5-|
|--3/5--5-5--3/5--5-5-------------------|------------------|
4 times  and then the whole thing 2 times


|------------------------------------------------------------------------|
|------------------------------------------------------------------------|
|-------------------6---------6----9----6--------4-----------------------|
|-9-9-9-9--9-9-9-9--6----7----6----9----6---7----4---7--4-4-4-4--4-4-4-4-|
|-7-7-7-7--7-7-7-7--4----7----4----7----4---7----2---7--2-2-2-2--2-2-2-2-|
|------------------------5------------------5--------5-------------------|


|-------------------------------------------------|
|-------------------------------------------------|
|-------------------------------------------------|
|-----------------------------------------------7-|
|-5/7--7-7-7-7--7-7-7-7--4/5--5-5-5-5--5-5-5-5--5-|
|-3/5--5-5-5-5--5-5-5-5--2/3--3-3-3-3--3-3-3-3----|
4 times


|---------------------------------------|------------------|
|---------------------------------------|------------------|
|---------------------------------------|------------------|
|----------------------7-7-7-7--7-7-7-7-|-7-7-7-7--7-7-7-7-|
|--5/7--7-7--5/7--7-7--5-5-5-5--5-5-5-5-|-5-5-5-5--5-5-5-5-|
|--3/5--5-5--3/5--5-5-------------------|------------------|
4 times  and then the whole thing 2 times
            
Hard to play? Try these video lessons and learn fast. | Correct




comments powered by Disqus
↑ Back to top | Tablatures and chords are parodies/interpretations of the original songs. You may use it for private study, scholarship, research or language learning purposes only