» » »

California Sun Bass tabs (ver.4)

Artists:  A B C D E F G H I J K L M N O P Q R S T U V W X Y Z # 

California Sun Bass tabs (ver.4)

Ramones
Rating:
0/5 (0 votes)

Tabs too difficult? Try these video lessons and learn fast.
                -------------------------------------------------------------------------------
			     California Sun - The Ramones
-------------------------------------------------------------------------------


This song is very simple and just follows the guitar, like every
punk rock song


Tuning: Standard (EADG)


Intro

G|---------------------------------|
D|---------------------------------|
A|--------0-000000--------0-000000-| x2
E|0-000000--------0-000000---------|

G|-----------------------------------|
D|-----------------------------------|
A|--------4-444444-----------7-7-7-7-| x1
E|0-000000--------5--5-5-7--7--------|

Verse (No bass)

Chorus

G|---------------------------------|
D|---------------------------------|
A|--------0-000000--------0-000000-|
E|0-000000--------0-000000---------|

G|-----------------------------------|
D|-----------------------------------|
A|--------4-444444-----------7-7-7-7-|
E|0-000000--------5--5-5-7--7--------|

Verse (No bass)


Bridge x1

G|---------------------------------|
D|---------------------------------|
A|---------------------------------| x1
E|00000000000000000000000000000000-|

G|---------------------------------|
D|---------------------------------|
A|--------0-000000--------0-000000-| x2
E|0-000000--------0-000000---------|

G|-----------------------------------|
D|-----------------------------------|
A|--------4-444444-----------7-7-7-7-| x1
E|0-000000--------5--5-5-7--7--------|

Verse (No bass)


Outro chorus

G|---------------------------------|
D|---------------------------------|
A|--------0-000000--------0-000000-| x2
E|0-000000--------0-000000---------|

G|---------------------------------------------------------------------------|
D|---------------------------------------------------------------------------|
A|--------4-444444-----------7-7-7-7-7-7-7-7--------4-444444-----------77777-|
E|0-000000--------5--5-5-7--7---------------0-000000--------5--5-5-7--7------|

Very good song for someone who's just starting out.


PEACE OUT


| /  slide up
| \  slide down
| h  hammer-on
| p  pull-off
| ~  vibrato
| +  harmonic
| x  Mute note
===============================================================================
            
Tabs too difficult? Try these video lessons and learn fast.


comments powered by Disqus
↑ Back to top | Tablatures and chords are parodies/interpretations of the original songs. You may use it for private study, scholarship, research or language learning purposes only