» » »

Ramones, Bop 'Til You Drop Tabs (ver.1)

Artists:  A B C D E F G H I J K L M N O P Q R S T U V W X Y Z # 

Bop 'Til You Drop Tabs (ver.1)

Ramones Tabs
Rating:
0/5 (0 votes)
Bop 'Til You Drop lessons Tabs too difficult? Try these video lessons and learn fast
                Standard Tuning

E|------------------------------|
B|------------------------------|
G|------------------------------|   X 2
D|--2------------------5-----5--| 
A|--2-2-2-2-2-2-2-2-2--5-----5--|
e|--0-0-0-0-0-0-0-0-0--3-0-0-3--|       
      . . . . . . . .    . .

    
E|--------------------------|
B|--------------------------|
G|--------------------------|    X 4
D|--2------------------5-7--|
A|--2-2-2-2-2-2-2-2-2--5-7--|
e|--0-0-0-0-0-0-0-0-0--3-5--|
      . . . . . . . .


E|--------------------------------------------------------------------|
B|--------------------------------------------------------------------|
G|--4-4-4-4-4-4-4-4-4-4-4-4-4-4-4-4--2-2-2-2-2-2-2-2-2-2-2-2-2-2-2-2--|
D|--4-4-4-4-4-4-4-4-4-4-4-4-4-4-4-4--2-2-2-2-2-2-2-2-2-2-2-2-2-2-2-2--|
A|--2-2-2-2-2-2-2-2-2-2-2-2-2-2-2-2--0-0-0-0-0-0-0-0-0-0-0-0-0-0-0-0--|
e|--------------------------------------------------------------------|


E|--------------------------|
B|--------------------------|
G|--------------------------|    X 6 
D|--2------------------5-7--|
A|--2-2-2-2-2-2-2-2-2--5-7--|
e|--0-0-0-0-0-0-0-0-0--3-5--|
      . . . . . . . .

E|--------------------------------------------------------------------|
B|--------------------------------------------------------------------|
G|--4-4-4-4-4-4-4-4-4-4-4-4-4-4-4-4--2-2-2-2-2-2-2-2-2-2-2-2-2-2-2-2--|
D|--4-4-4-4-4-4-4-4-4-4-4-4-4-4-4-4--2-2-2-2-2-2-2-2-2-2-2-2-2-2-2-2--|
A|--2-2-2-2-2-2-2-2-2-2-2-2-2-2-2-2--0-0-0-0-0-0-0-0-0-0-0-0-0-0-0-0--|
e|--------------------------------------------------------------------|


E|--------------------------|
B|--------------------------|
G|--------------------------|    X 2 
D|--2------------------5-7--|
A|--2-2-2-2-2-2-2-2-2--5-7--|
e|--0-0-0-0-0-0-0-0-0--3-5--|
      . . . . . . . .

E|-----------------------|
B|-----------------------|
G|--9--------------------|     x 4
D|--9--9-9-7-7-5-2--5-2--|
A|--7--9-9-7-7-5-2--5-2--|
e|-----7-7-5-5-3-0--3-0--|


E|------------------------------|
B|------------------------------|
G|------------------------------|   X 2
D|--2------------------5-----5--| 
A|--2-2-2-2-2-2-2-2-2--5-----5--|
e|--0-0-0-0-0-0-0-0-0--3-0-0-3--|       
      . . . . . . . .    . .


E|--------------------------|
B|--------------------------|
G|--------------------------|    X 4
D|--2------------------5-7--|
A|--2-2-2-2-2-2-2-2-2--5-7--|
e|--0-0-0-0-0-0-0-0-0--3-5--|
      . . . . . . . .

E|--------------------------------------------------------------------|
B|--------------------------------------------------------------------|
G|--4-4-4-4-4-4-4-4-4-4-4-4-4-4-4-4--2-2-2-2-2-2-2-2-2-2-2-2-2-2-2-2--|
D|--4-4-4-4-4-4-4-4-4-4-4-4-4-4-4-4--2-2-2-2-2-2-2-2-2-2-2-2-2-2-2-2--|
A|--2-2-2-2-2-2-2-2-2-2-2-2-2-2-2-2--0-0-0-0-0-0-0-0-0-0-0-0-0-0-0-0--|
e|--------------------------------------------------------------------|



E|--------------------------|
B|--------------------------|
G|--------------------------|    X 2
D|--2------------------5-7--|
A|--2-2-2-2-2-2-2-2-2--5-7--|
e|--0-0-0-0-0-0-0-0-0--3-5--|
      . . . . . . . .


E|-----------------------|
B|-----------------------|
G|--9--------------------|     x 3
D|--9--9-9-7-7-5-2--5-2--|
A|--7--9-9-7-7-5-2--5-2--|
e|-----7-7-5-5-3-0--3-0--|



E|-----------------------|
B|-----------------------|
G|--9--------------------|     x 3
D|--9--9-9-7-7-5--2------|
A|--7--9-9-7-7-5--2------|
e|-----7-7-5-5-3--0------|
            

comments powered by Disqus
↑ Back to top | Ramones Tabs for Bop 'Til You Drop. Lyrics for acoustic guitar and electric guitar. Tablatures and chords are parodies/interpretations of the original songs. You may use it for private study, scholarship, research or language learning purposes only