» » »

Ramones, Bop Ill You Drop Tabs (ver.1)

Artists:  A B C D E F G H I J K L M N O P Q R S T U V W X Y Z # 

Bop Ill You Drop Tabs (ver.1)

Ramones Tabs
 Rating:
4/5 (4 votes)
Bop 	Ill You Drop lessons Tabs too difficult? Try these video lessons and learn fast
                You can figure out the rhythm of the song on your own

Intro:
e-------------------------------------------------------------
B------------------------------------------------------------
G------------------------------------------------------------
D---2-2-2-2-2-2-2-2-2-2------5------2-2------5-----
A---2-2-2-2-2-2-2-2-2-2------5------2-2------5------
E---0-0-0-0-0-0-0-0-0-0------3------0-0------3------
     ^^^^^^^P.M.^^^^^^              P.M.

Main Riff:
e----------------------------------------------
B----------------------------------------------
G-------------------------------------------
D---2-2-2-2-2-2-2-2-2-2-2-2-------5------7-----
A---2-2-2-2-2-2-2-2-2-2-2-2-------5------7----
E---0-0-0-0-0-0-0-0-0-0-0-0-------3------5-----
      ^^^^^^^^P.M.^^^^^^^^

Chorus:
e---------------------------
B--------------------------
G--------------------------
D------9-----------7------
A------9-----------7------
E------7-----------5------

Bridge:
e----------------------------------------------------------------------------
B----------------------------------------------------------------------------
G------9--------------------------------------------------------------------
D------9------------9---------7---------5---------2----------5-----2-----
A------7------------9---------7---------5---------2----------5-----2-----
E------0------------7---------5---------3---------0----------3-----0-----
            
Submit corrections

comments powered by Disqus
↑ Back to top | Ramones Tabs for Bop Ill You Drop. Lyrics for acoustic guitar and electric guitar. Tablatures and chords are parodies/interpretations of the original songs. You may use it for private study, scholarship, research or language learning purposes only