» » »

Blitzrieg Bop Tabs (ver.1)

Artists:  A B C D E F G H I J K L M N O P Q R S T U V W X Y Z # 

Blitzrieg Bop Tabs (ver.1)

Ramones
Rating:
0/5 (0 votes)

Hard to play? Try these video lessons and learn fast.
                Really easy song.

E|------------------|
B|------------------|
G|----------7-9-9---|
D|-77777777-7-9-9---|x3
A|-77777777-5-7-7---|
E|-55555555---------|

E|---------------|
B|---------------|
G|------777------|
D|-7777-777-7777-|x1
A|-7777-555-7777-|
E|-5555-----5555-|

E|------------------|
B|------------------|
G|----------7-9-9---|
D|-77777777-7-9-9---|x3
A|-77777777-5-7-7---|
E|-55555555---------|

E|---------------|
B|---------------|
G|------777------|
D|-7777-777-7777-|x1
A|-7777-555-7777-|
E|-5555-----5555-|

E|----------------------|
B|----------------------|
G|----------------------|
D|------------777777777-|x1
A|------------777777777-|
E|-5555555555-555555555-|

E|------------------|
B|------------------|
G|----------7-9-9---|
D|-77777777-7-9-9---|x3
A|-77777777-5-7-7---|
E|-55555555---------|

E|---------------|
B|---------------|
G|------777------|
D|-7777-777-7777-|x1
A|-7777-555-7777-|
E|-5555-----5555-|

E|------------------|
B|------------------|
G|----------7-9-9---|
D|-77777777-7-9-9---|x3
A|-77777777-5-7-7---|
E|-55555555---------|

E|---------------|
B|---------------|
G|------777------|
D|-7777-777-7777-|x1
A|-7777-555-7777-|
E|-5555-----5555-|

E|------------------------------|
B|------------------------------|
G|------------------------------|
D|-7777777777777777777777777777-|x1
A|-5555555555555555555555555555-|
E|-5555555555555555555555555555-|

E|------------------|
B|------------------|
G|----------7-9-9---|
D|-77777777-7-9-9---|x3
A|-77777777-5-7-7---|
E|-55555555---------|

E|---------------|
B|---------------|
G|------777------|
D|-7777-777-7777-|x1
A|-7777-555-7777-|
E|-5555-----5555-|

E|------------------|
B|------------------|
G|----------7-9-9---|
D|-77777777-7-9-9---|x3
A|-77777777-5-7-7---|
E|-55555555---------|

E|---------------|
B|---------------|
G|------777------|
D|-7777-777-7777-|x1
A|-7777-555-7777-|
E|-5555-----5555-|

E|------------------------------|
B|------------------------------|
G|------------------------------|
D|-7777777777777777777777777777-|x1
A|-5555555555555555555555555555-|
E|-5555555555555555555555555555-|

E|------------------|
B|------------------|
G|----------7-9-9---|
D|-77777777-7-9-9---|x3
A|-77777777-5-7-7---|
E|-55555555---------|

E|---------------|
B|---------------|
G|------777------|
D|-7777-777-7777-|x1
A|-7777-555-7777-|
E|-5555-----5555-|

E|------------------|
B|------------------|
G|----------7-9-9---|
D|-77777777-7-9-9---|x3
A|-77777777-5-7-7---|
E|-55555555---------|

E|---------------|
B|---------------|
G|------777------|
D|-7777-777-7777-|x1
A|-7777-555-7777-|
E|-5555-----5555-|

E|----------------------|
B|----------------------|
G|----------------------|
D|------------777777777-|x1
A|------------777777777-|
E|-5555555555-555555555-|
            
Hard to play? Try these video lessons and learn fast. | Correct




comments powered by Disqus
↑ Back to top | Tablatures and chords are parodies/interpretations of the original songs. You may use it for private study, scholarship, research or language learning purposes only