» » »

Ramones, Blitzkrieg Pop Tabs (ver.1)

Artists:  A B C D E F G H I J K L M N O P Q R S T U V W X Y Z # 

Blitzkrieg Pop Tabs (ver.1)

Ramones Tabs
 Rating:
4/5 (4 votes)
Blitzkrieg Pop lessons Tabs too difficult? Try these video lessons and learn fast
                cool punk tab.
standard tuning
I couldn't believe they didn't have this on the site
this is very easy
much easier than it looks.
AND IT LOOKS EASY! :)

intro:

e--------------------------------------------------------------------------
b--------------------------------------------------------------------------
g-----------------7--9-9------------------7--9-9------------------7--9-9--9
d-7-7-7-7-7-7-7-7-7--9-9--7-7-7-7-7-7-7-7-7--9-9--7-7-7-7-7-7-7-7-7--9-9--9
a-7-7-7-7-7-7-7-7-5--7-7--7-7-7-7-7-7-7-7-5--7-7--7-7-7-7-7-7-7-7-5--7-7--7
e-5-5-5-5-5-5-5-5---------5-5-5-5-5-5-5-5---------5-5-5-5-5-5-5-5----------

e----------
b----------
g----7-7---
d-7--7-7--7
a-7--5-5--7
e-5-------5

singing "hey, ho, lets go"
don't come in til last 2 "hey ho, lets go"'s
while your saying the last 2 hey ho lets go's, the bass does this

g----------------------------------------------------------------
d----------------------------------------------------------------
a----------------------------------------------------------------
e-5-5-5-5-5-5-5-5-5-5-5-5-5-5-5-5-5-5-5-5-5-5-5-5-5-5-5-5-5-5-5-5

and on the last note, "let's go,"
the guitar does this
e-----
b-----
g-----
d-14/7
a-14/7
e-12/5

then you play what you played during the intro
then at the chorus, play this
e-------------------------------------------------------
b-------------------------------------------------------
g-7-7-7-7-7-7-7-7-7-7-7-7-7-7-7-7-9-9-9-9---------7--9-9
d-7-7-7-7-7-7-7-7-7-7-7-7-7-7-7-7-9-9-9-9-7-7-7-7-7--9-9
a-5-5-5-5-5-5-5-5-5-5-5-5-5-5-5-5-7-7-7-7-7-7-7-7-5--7-7
e-----------------------------------------5-5-5-5-------

e-------------------------------------------------------
b-------------------------------------------------------
g-7-7-7-7-7-7-7-7-7-7-7-7-7-7-7-7-----------------7--9-9
d-7-7-7-7-7-7-7-7-7-7-7-7-7-7-7-7-9-9-9-9-9-9-9-9-7--9-9
a-5-5-5-5-5-5-5-5-5-5-5-5-5-5-5-5-9-9-9-9-9-9-9-9-5--7-7
e---------------------------------7-7-7-7-7-7-7-7-------

then go back to what you played in the intro.
No solos!
aint it simple?
            
Submit corrections

comments powered by Disqus
↑ Back to top | Ramones Tabs for Blitzkrieg Pop. Lyrics for acoustic guitar and electric guitar. Tablatures and chords are parodies/interpretations of the original songs. You may use it for private study, scholarship, research or language learning purposes only