» » »

Ramones, Blitzkreig Bop Bass tabs (ver.3)

Artists:  A B C D E F G H I J K L M N O P Q R S T U V W X Y Z # 

Blitzkreig Bop Bass tabs (ver.3)

Ramones Tabs
 Rating:
4/5 (4 votes)
Blitzkreig Bop lessons Tabs too difficult? Try these video lessons and learn fast
1
                Type: Bass Tab

Verse 1
G:---------------------------------:
D:---------------------------------:
A:-------------5-5h7-7-7-7---------:
E:-5-5-5-5-5-5---------------------:

Verse 2
G ---------------------------------:
D ---------------------------------:
A -------5-5-5---------------------:
E -5-5-5---------5-----------------:

Chorus
G:----------------------------------:
D:----------------------------------:
A:-5-5-5-5-5-5-5-5-5----------------:
E:-------------------5-5-5-5-5-5-5-5:
            
Submit corrections

comments powered by Disqus
↑ Back to top | Ramones Bass for Blitzkreig Bop. Lyrics for acoustic guitar and electric guitar. 1 Tablatures and chords are parodies/interpretations of the original songs. You may use it for private study, scholarship, research or language learning purposes only