» » »

Blitzkreig Bop Tabs (ver.2)

Artists:  A B C D E F G H I J K L M N O P Q R S T U V W X Y Z # 

Blitzkreig Bop Tabs (ver.2)

Ramones
Rating:
0/5 (0 votes)

Hard to play? Try these video lessons and learn fast.
                Song Title : Blitzkreig Bop
Written By : Ramones



                                                (x3)
e|--------------------------------------------------|
B|--------------------------------------------------|
G|---------------7-7-7--9-9-9-9---------------------|
D|--7-7-7-7-7-7--7-7-7--9-9-9-9---------------------|
A|--7-7-7-7-7-7--5-5-5--7-7-7-7---------------------|
E|--5-5-5-5-5-5-------------------------------------|

                                                (x1)
e|--------------------------------------------------|
B|--------------------------------------------------|
G|---------7-7-7------------------------------------|
D|--7-7-7--7-7-7--7-7-7-7-7-7-7-7-------------------|
A|--7-7-7--5-5-5--7-7-7-7-7-7-7-7-------------------|
E|--5-5-5---------5-5-5-5-5-5-5-5-------------------|

                                                (x3)
e|--------------------------------------------------|
B|--------------------------------------------------|
G|---------------7-7-7--9-9-9-9---------------------|
D|--7-7-7-7-7-7--7-7-7--9-9-9-9---------------------|
A|--7-7-7-7-7-7--5-5-5--7-7-7-7---------------------|
E|--5-5-5-5-5-5-------------------------------------|

                                                (x1)
e|--------------------------------------------------|
B|--------------------------------------------------|
G|---------7-7-7------------------------------------|
D|--7-7-7--7-7-7--7-7-7-7-7-7-7-7-------------------|
A|--7-7-7--5-5-5--7-7-7-7-7-7-7-7-------------------|
E|--5-5-5---------5-5-5-5-5-5-5-5-------------------|

Hey Ho, Lets Go
Hey Ho, Lets Go
Hey Ho, Lets Go
Hey Ho, Lets Go

On The Start Of The  4th Hey Ho, Lets Go Start The Song With

                                                (x1)
e|--------------------------------------------------|
B|--------------------------------------------------|
G|--------------------------------------------------|
D|--7-7-7-7-7-7-7-7-7-7-7-7-7-7-7-7-----------------|
A|--7-7-7-7-7-7-7-7-7-7-7-7-7-7-7-7-----------------|
E|--5-5-5-5-5-5-5-5-5-5-5-5-5-5-5-5-----------------|
                                                (x3)
e|--------------------------------------------------|
B|--------------------------------------------------|
G|---------------7-7-7--9-9-9-9---------------------|
D|--7-7-7-7-7-7--7-7-7--9-9-9-9---------------------|
A|--7-7-7-7-7-7--5-5-5--7-7-7-7---------------------|
E|--5-5-5-5-5-5-------------------------------------|
                                                (x1)
e|--------------------------------------------------|
B|--------------------------------------------------|
G|---------7-7-7------------------------------------|
D|--7-7-7--7-7-7--7-7-7-7-7-7-7-7-------------------|
A|--7-7-7--5-5-5--7-7-7-7-7-7-7-7-------------------|
E|--5-5-5---------5-5-5-5-5-5-5-5-------------------|

                                                (x3)
e|--------------------------------------------------|
B|--------------------------------------------------|
G|---------------7-7-7--9-9-9-9---------------------|
D|--7-7-7-7-7-7--7-7-7--9-9-9-9---------------------|
A|--7-7-7-7-7-7--5-5-5--7-7-7-7---------------------|
E|--5-5-5-5-5-5-------------------------------------|
                                                (x1)
e|--------------------------------------------------|
B|--------------------------------------------------|
G|---------7-7-7------------------------------------|
D|--7-7-7--7-7-7--7-7-7-7-7-7-7-7-------------------|
A|--7-7-7--5-5-5--7-7-7-7-7-7-7-7-------------------|
E|--5-5-5---------5-5-5-5-5-5-5-5-------------------|
                                                                       (x1)
e|--------------------------------------------------------------------------|
B|--------------------------------------------------------------------------|
G|--7-7-7-7-7-7-7-7-7-7-7-7---------------7-7-----------7-7-7-7-7-7-7-7-7-7-|
D|--7-7-7-7-7-7-7-7-7-7-7-7--7-7-7-7-7-7--7-7--7-7-7-7--7-7-7-7-7-7-7-7-7-7-|
A|--5-5-5-5-5-5-5-5-5-5-5-5--7-7-7-7-7-7--5-5--7-7-7-7--5-5-5-5-5-5-5-5-5-5-|
E|---------------------------5-5-5-5-5-5-------5-5-5-5----------------------|
                                                (x1)
e|--------------------------------------------------|
B|--------------------------------------------------|
G|-------------7-7-7--9-9-9-9-----------------------|
D|--9-9-9-9-9--7-7-7--9-9-9-9-----------------------|
A|--9-9-9-9-9--5-5-5--7-7-7-7-----------------------|
E|--7-7-7-7-7---------------------------------------|
                                                (x3)
e|--------------------------------------------------|
B|--------------------------------------------------|
G|---------------7-7-7--9-9-9-9---------------------|
D|--7-7-7-7-7-7--7-7-7--9-9-9-9---------------------|
A|--7-7-7-7-7-7--5-5-5--7-7-7-7---------------------|
E|--5-5-5-5-5-5-------------------------------------|

                                                (x1)
e|--------------------------------------------------|
B|--------------------------------------------------|
G|---------7-7-7------------------------------------|
D|--7-7-7--7-7-7--7-7-7-7-7-7-7-7-------------------|
A|--7-7-7--5-5-5--7-7-7-7-7-7-7-7-------------------|
E|--5-5-5---------5-5-5-5-5-5-5-5-------------------|

                                                (x3)
e|--------------------------------------------------|
B|--------------------------------------------------|
G|---------------7-7-7--9-9-9-9---------------------|
D|--7-7-7-7-7-7--7-7-7--9-9-9-9---------------------|
A|--7-7-7-7-7-7--5-5-5--7-7-7-7---------------------|
E|--5-5-5-5-5-5-------------------------------------|

                                                (x1)
e|--------------------------------------------------|
B|--------------------------------------------------|
G|---------7-7-7------------------------------------|
D|--7-7-7--7-7-7--7-7-7-7-7-7-7-7-------------------|
A|--7-7-7--5-5-5--7-7-7-7-7-7-7-7-------------------|
E|--5-5-5---------5-5-5-5-5-5-5-5-------------------|

                                                                      (x1)
e|--------------------------------------------------------------------------|
B|--------------------------------------------------------------------------|
G|--7-7-7-7-7-7-7-7-7-7-7-7---------------7-7-----------7-7-7-7-7-7-7-7-7-7-|
D|--7-7-7-7-7-7-7-7-7-7-7-7--7-7-7-7-7-7--7-7--7-7-7-7--7-7-7-7-7-7-7-7-7-7-|
A|--5-5-5-5-5-5-5-5-5-5-5-5--7-7-7-7-7-7--5-5--7-7-7-7--5-5-5-5-5-5-5-5-5-5-|
E|---------------------------5-5-5-5-5-5-------5-5-5-5----------------------|
                                                (x1)
e|--------------------------------------------------|
B|--------------------------------------------------|
G|-------------7-7-7--9-9-9-9-----------------------|
D|--9-9-9-9-9--7-7-7--9-9-9-9-----------------------|
A|--9-9-9-9-9--5-5-5--7-7-7-7-----------------------|
E|--7-7-7-7-7---------------------------------------|

                                                (x3)
e|--------------------------------------------------|
B|--------------------------------------------------|
G|---------------7-7-7--9-9-9-9---------------------|
D|--7-7-7-7-7-7--7-7-7--9-9-9-9---------------------|
A|--7-7-7-7-7-7--5-5-5--7-7-7-7---------------------|
E|--5-5-5-5-5-5-------------------------------------|

                                                (x1)
e|--------------------------------------------------|
B|--------------------------------------------------|
G|---------7-7-7------------------------------------|
D|--7-7-7--7-7-7--7-7-7-7-7-7-7-7-------------------|
A|--7-7-7--5-5-5--7-7-7-7-7-7-7-7-------------------|
E|--5-5-5---------5-5-5-5-5-5-5-5-------------------|

                                                (x3)
e|--------------------------------------------------|
B|--------------------------------------------------|
G|---------------7-7-7--9-9-9-9---------------------|
D|--7-7-7-7-7-7--7-7-7--9-9-9-9---------------------|
A|--7-7-7-7-7-7--5-5-5--7-7-7-7---------------------|
E|--5-5-5-5-5-5-------------------------------------|

                                                (x1)
e|--------------------------------------------------|
B|--------------------------------------------------|
G|---------7-7-7------------------------------------|
D|--7-7-7--7-7-7--7-7-7-7-7-7-7-7-------------------|
A|--7-7-7--5-5-5--7-7-7-7-7-7-7-7-------------------|
E|--5-5-5---------5-5-5-5-5-5-5-5-------------------|
            
Hard to play? Try these video lessons and learn fast. | Correct




comments powered by Disqus
↑ Back to top | Tablatures and chords are parodies/interpretations of the original songs. You may use it for private study, scholarship, research or language learning purposes only