» » »

Ramones, Blitzkreig Bop Bass tabs (ver.2)

Artists:  A B C D E F G H I J K L M N O P Q R S T U V W X Y Z # 

Blitzkreig Bop Bass tabs (ver.2)

Ramones Tabs
 Rating:
4/5 (4 votes)
Blitzkreig Bop lessons Tabs too difficult? Try these video lessons and learn fast
1
                The Ramones

To get this right go to the bottom for the order its played.
G------------------------------------------------
D------------------------------------------------
A--------------------55--------------------------Riff 1
E-0000-5-7-(x3)-5555----5555---------------------


G------------------------------------------------
D------------------------------------------------
A------------------------------------------------Riff 2
E-5555555555555555-------------------------------


G------------------------------------------------
D------------------------------------------------Riff 3
A-55555555------5--55555555------557-------------
E----------0000--7----------7777-----------------

This is the order it is played.
Riff 1-x2
For Riff 2 wait 4 Joey to say hey ho lets go and do this once.
Riff 1-x2
Riff 3-x1
Riff 1-x2-The End.
            
Submit corrections

comments powered by Disqus
↑ Back to top | Ramones Bass for Blitzkreig Bop. Lyrics for acoustic guitar and electric guitar. 1 Tablatures and chords are parodies/interpretations of the original songs. You may use it for private study, scholarship, research or language learning purposes only