» » »

Blitzkreig Bop Tabs (ver.1)

Artists:  A B C D E F G H I J K L M N O P Q R S T U V W X Y Z # 

Blitzkreig Bop Tabs (ver.1)

Ramones
Rating:
5/5 (14 votes)

Hard to play? Try these video lessons and learn fast.
                ------------------------------------------------------------------------------
-------------------------------Blitzkrieg_Bop---------------------------------
------------------------------------------------------------------------------

Tuning: Standard

[Intro]

Play This twice...

 |============3x=============|
e|---------------------------|--------------------------------|
b|---------------------------|--------------------------------|
g|---------------------------|--------------------------------|
d|----------------7---9--9-9-|--------7-7-7-7-----------------|
a|7-7-7-7-7-7-7-7-5---7--7-7-|7-7-7-7-5-5-5-5-7-7-7-7-7-7-7-7-|
E|5-5-5-5-5-5-5-5------------|5-5-5-5---------5-5-5-5-5-5-5-5-|

[Pre-Verse]

e|---------------------------|------------------|
b|---------------------------|------------------|
g|---------------------------|------------------|
d|---------------------------|------------------|
a|---------------------------|7-7-7-7-7-7-7-7-7-|
E|---------------------------|5-5-5-5-5-5-5-5-5-|

[Verse 1]

play this twice....

 |============3x=============|
e|---------------------------|--------------------------------|
b|---------------------------|--------------------------------|
g|---------------------------|--------------------------------|
d|----------------7---9--9-9-|--------7-7-7-7-----------------|
a|7-7-7-7-7-7-7-7-5---7--7-7-|7-7-7-7-5-5-5-5-7-7-7-7-7-7-7-7-|
E|5-5-5-5-5-5-5-5------------|5-5-5-5---------5-5-5-5-5-5-5-5-|

[Chorus 1]

e|-------------------------------------------------------------|
b|-------------------------------------------------------------|
g|-------------------------------------------------------------|
d|7-7-7-7-7-7-7-7-7-7-7-7-7-7-7-7-7-7-----------------7--------|
a|5-5-5-5-5-5-5-5-5-5-5-5-5-5-5-5-5-5-7-7-7-7-7-7-7-7-5---7--7-|
E|------------------------------------5-5-5-5-5-5-5-5-----5--5-|

e|-------------------------------------------------------------|
b|-------------------------------------------------------------|
g|-------------------------------------------------------------|
d|7-7-7-7-7-7-7-7-7-7-7-7-7-7-7-7-7-7-----------------7---9--9-|
a|5-5-5-5-5-5-5-5-5-5-5-5-5-5-5-5-5-5-7-7-7-7-7-7-7-7-5---7--7-|
E|------------------------------------5-5-5-5-5-5-5-5----------|

[Verse 2]

play this twice....

 |============3x=============|
e|---------------------------|--------------------------------|
b|---------------------------|--------------------------------|
g|---------------------------|--------------------------------|
d|----------------7---9--9-9-|--------7-7-7-7-----------------|
a|7-7-7-7-7-7-7-7-5---7--7-7-|7-7-7-7-5-5-5-5-7-7-7-7-7-7-7-7-|
E|5-5-5-5-5-5-5-5------------|5-5-5-5---------5-5-5-5-5-5-5-5-|

[Chorus 2]

e|-------------------------------------------------------------|
b|-------------------------------------------------------------|
g|-------------------------------------------------------------|
d|7-7-7-7-7-7-7-7-7-7-7-7-7-7-7-7-7-7-----------------7--------|
a|5-5-5-5-5-5-5-5-5-5-5-5-5-5-5-5-5-5-7-7-7-7-7-7-7-7-5---7--7-|
E|------------------------------------5-5-5-5-5-5-5-5-----5--5-|

e|-------------------------------------------------------------|
b|-------------------------------------------------------------|
g|-------------------------------------------------------------|
d|7-7-7-7-7-7-7-7-7-7-7-7-7-7-7-7-7-7-----------------7---9--9-|
a|5-5-5-5-5-5-5-5-5-5-5-5-5-5-5-5-5-5-7-7-7-7-7-7-7-7-5---7--7-|
E|------------------------------------5-5-5-5-5-5-5-5----------|

[Verse 3]

play this twice....

 |============3x=============|
e|---------------------------|--------------------------------|
b|---------------------------|--------------------------------|
g|---------------------------|--------------------------------|
d|----------------7---9--9-9-|--------7-7-7-7-----------------|
a|7-7-7-7-7-7-7-7-5---7--7-7-|7-7-7-7-5-5-5-5-7-7-7-7-7-7-7-7-|
E|5-5-5-5-5-5-5-5------------|5-5-5-5---------5-5-5-5-5-5-5-5-|

[Outro]

e|---------------------------|------------------|
b|---------------------------|------------------|
g|---------------------------|7-7-7-7-7-7-7-7-7-|
d|---------------------------|5-5-5-5-5-5-5-5-5-|
a|---------------------------|------------------|
E|---------------------------|------------------|
            
Hard to play? Try these video lessons and learn fast. | Correct




comments powered by Disqus
↑ Back to top | Tablatures and chords are parodies/interpretations of the original songs. You may use it for private study, scholarship, research or language learning purposes only