» » »

Blietzkrieg Bob Bass tabs (ver.1)

Artists:  A B C D E F G H I J K L M N O P Q R S T U V W X Y Z # 

Blietzkrieg Bob Bass tabs (ver.1)

Ramones
Rating:
0/5 (0 votes)

Hard to play? Try these video lessons and learn fast.
                Verse
G-------------------------
D-------------------------
A-----------------5-5-5--7
E-5-5-5-5-5-5-5-5---------

Bridge thing
G-----------------
D-----------------
A------5-5-5------
E-5-5-5------5-5-5

Eh-Ho Lets GO!! thing
G----------------------------------------------------------------
D----------------------------------------------------------------
A----------------------------------------------------------------
E-5-5-5-5-5-5-5-5-5-5-5-5-5-5-5-5-5-5-5-5-5-5-5-5-5-5-5-5-5-5-5-5

Chorus
G-------------------------------------------------------------
D-------------------------------------------------------------
A-5-5-5-5-5-5-5-5---------------5-5-5-5-5-5-5-5---------------
E----------------5-5-5-5-5-5-5-5---------------5-5-5-5-5-5-5-5

this is the basics of the song. 
It´s the best warm up song!! 
Me and my Mates always warm up whit this.
Listen to the song to find out the order.
and keep rocking!!
            
Hard to play? Try these video lessons and learn fast. | Correct




comments powered by Disqus
↑ Back to top | Tablatures and chords are parodies/interpretations of the original songs. You may use it for private study, scholarship, research or language learning purposes only