» » »

Bad Brain Bass tabs (ver.1)

Artists:  A B C D E F G H I J K L M N O P Q R S T U V W X Y Z # 

Bad Brain Bass tabs (ver.1)

Ramones
Rating:
0/5 (0 votes)

Hard to play? Try these video lessons and learn fast.
                This is a very easy song to play all you need to do is memorize and get the timing. If 

Riff
e -------5-5-5--------5----------------------------------|
a 7-7-7-------5-5-5-5------------------------------------|
d -------------------------------------------------------|
g -------------------------------------------------------|

Verse
e 5-5-5-----7-7-7----------------------------------------|
a ------7-7-7-----7-5------------------------------------|
d -------------------------------------------------------|
g -------------------------------------------------------|

Bridge
e --------------2-2-2-2-2--------------------------------|
a 5-5-5-2-2-2--------------------------------------------|
d -------------------------------------------------------|
g -------------------------------------------------------|

Riff X4
Verse X4
Bridge X4
Verse X6
Bridge X2
Verse X4
Riff X4
Bridge X2
Verse X6
Bridge X2
Verse X4
Pause
Bridge until the end of the song
            
Hard to play? Try these video lessons and learn fast. | Correct




comments powered by Disqus
↑ Back to top | Tablatures and chords are parodies/interpretations of the original songs. You may use it for private study, scholarship, research or language learning purposes only