» » »

Ramones, Babysitter Tabs (ver.1)

Artists:  A B C D E F G H I J K L M N O P Q R S T U V W X Y Z # 

Babysitter Tabs (ver.1)

Ramones Tabs
Rating:
0/5 (0 votes)
Babysitter lessons Tabs too difficult? Try these video lessons and learn fast
                -------------------------------------------------------------------------------
-------------------------------------------------------------------------------

Tuning: Standard
It's a Ramones Song so just keep picking the chord until its time to switch

Chourus
e|---------------------------------------------------------------------------|
B|-------3---5---------------------------------------------------------------|
G|-3-----4---6---------------------------------------------------------------
D|-4-----4---6---------------------------------------------------------------|
A|-4-----2---4---------------------------------------------------------------|
E|-2-------------------------------------------------------------------------|
"She says shes babysitting tonight, She says come over it's alright"
e|---------------------------------------------------------------------------|
B|--3-----5------------------------------------------------------------------|
G|--4-----6------------------------------------------------------------------|
D|--4-----6------------------------------------------------------------------|
A|--2-----4------------------------------------------------------------------|
E|---------------------------------------------------------------------------|
"Sitting on the couch with my special one, aren't you glad the folks are gone?"
e|---------------------------------------------------------------------------|
B|--6------------------------------------------------------------------------|
G|--7----6-------------------------------------------------------------------|
D|--7----7-------------------------------------------------------------------|
A|--5----7-------------------------------------------------------------------|
E|-------5-------------------------------------------------------------------|
"She waits until kids are asleep"
e|---------------------------------------------------------------------------|
B|---8-----------------------------------------------------------------------|
G|---9-----------------------------------------------------------------------|
D|---9-----------------------------------------------------------------------|
A|---7-----------------------------------------------------------------------|
E|---------------------------------------------------------------------------|
"Cause the little kid is a spy"

That's it. Repeat parts were necessary. Enjoy!
            
Submit corrections

comments powered by Disqus
↑ Back to top | Ramones Tabs for Babysitter. Lyrics for acoustic guitar and electric guitar. Tablatures and chords are parodies/interpretations of the original songs. You may use it for private study, scholarship, research or language learning purposes only