» » »

Ramones, Animal Boy Bass tabs (ver.1)

Artists:  A B C D E F G H I J K L M N O P Q R S T U V W X Y Z # 

Animal Boy Bass tabs (ver.1)

Ramones Tabs
Rating:
3/5 (1 vote)
Animal Boy lessons Tabs too difficult? Try these video lessons and learn fast
                Tema:Animal Boy
Banda: Ramones

INTRO

G|-------------------|--------------------|
D|-------------------|--------------------|         2X
A|-------------------|--------------------|
E|777--33--55--------|7777--33--55--------|


VERSO

G|-------------------|--------------------|
D|-------------------|--------------------|         4X
A|-------------------|--------------------|
E|777--33--55--------|7777--33--55--------|


PRE-CORO

G|----------------------------------------|
D|----------------------------------------|         3X
A|7---7--55-------------------------------|
E|--7-------------------------------------|

CORO 1 (Cuando grita: Animal Boy!)


G|--------------|--------------|--------------|---------------|
D|--------------|--------------|--------------|---------------|
A|7---7--55-----|7---7--55-----|7---7--55-----|---------------|
E|--7-----------|--7-----------|--7-----------|22222222222222-|

INTERLUDE


G|--------------|
D|--------------|                    4X
A|--------------|
E|7-7-3-5-2-----|

CORO 2 (Cuando grita: Animal Boy!) y Termina


G|--------------|--------------|--------------|---------------|
D|--------------|--------------|--------------|---------------|
A|7---7--55-----|--------------|7---7--55-----|---------------|
E|--7-----------|22222222222222|--7-----------|22222222222222-|


G|--------------|--------------|--------------|--------------|
D|--------------|--------------|--------------|--------------|
A|7---7--55-----|--------------|--------------|--------------|
E|--7-----------|22222222222222|22222222222222|-7------------|


ORDEN

INTRO
VERSO
PRE-CORO
VERSO
CORO 1
VERSO
CORO 1
INTERLUDE
INTRO
VERSO
CORO 2
            

comments powered by Disqus
↑ Back to top | Ramones Bass for Animal Boy. Lyrics for acoustic guitar and electric guitar. Tablatures and chords are parodies/interpretations of the original songs. You may use it for private study, scholarship, research or language learning purposes only