>
 >
What A Wonderful World

What A Wonderful World Guitar Tabs

Ramone Joey - What A Wonderful World chords, tabs, tablatures, lyrics

Guitar lessons | Add/correct | Request | Top 50 tabs Artists:  A B C D E F G H I J K L M N O P Q R S T U V W X Y Z 0-9

What A Wonderful World Guitar Tabs – Ramone Joey

CD, Sheet music, Poster

Do you like What A Wonderful World? Share with your friends now
ChordsTabs
Tuning: Standard (E A D G B E)

Intro

E|------||
B|------||
G|------||
D|------||
A|------||
E|-/12\-||

E|---------------------------------|---------------------------------||
B|---------------------------------|---------------------------------||
G|---------------------------------|---------------------------------||
D|-3-3-3-3-3-3-----3-3-3-3-3-3-----|-3-3-3-3-3-3-----3-3-3-3-3-3-----||
A|-3-3-3-3-3-3-3-3-3-3-3-3-3-3-3-3-|-3-3-3-3-3-3-3-3-3-3-3-3-3-3-3-3-||
E|-1-1-----1-1-----1-1-----1-1-----|-1-1-----1-1-----1-1-----1-1-----||

E|---------------------------------|---------------------------------||
B|---------------------------------|---------------------------------||
G|---------------------------------|---------------------------------||
D|-3-3-3-3-3-3-----3-3-3-3-3-3-----|-3-3-3-3-3-3-----3-3-3-3-3-3-----||
A|-3-3-3-3-3-3-3-3-3-3-3-3-3-3-3-3-|-3-3-3-3-3-3-3-3-3-3-3-3-3-3-3-3-||
E|-1-1-----1-1-----1-1-----1-1-----|-1-1-----1-1-----1-1-----1-1-----||

Verse 1
P.M..................................................................|
E|---------------------------------|---------------------------------||
B|---------------------------------|---------------------------------||
G|---------2-2-2-2-3-3-3-3-2-2-2-2-|-----------------6-6-6-6-7-7-7-7-||
D|-3-3-3-3-2-2-2-2-3-3-3-3-2-2-2-2-|-5-5-5-5-3-3-3-3-6-6-6-6-7-7-7-7-||
A|-3-3-3-3-0-0-0-0-1-1-1-1-0-0-0-0-|-5-5-5-5-3-3-3-3-4-4-4-4-5-5-5-5-||
E|-1-1-1-1-------------------------|-3-3-3-3-1-1-1-1-----------------||

E|---------------------------------|---------------------------------||
B|---------------------------------|---------------------------------||
G|-6-6-6-6-6-6-6-6-3-3-3-3-5-5-5-5-|-10101010101010105-5-5-5-5-5-5-5-||
D|-6-6-6-6-6-6-6-6-3-3-3-3-5-5-5-5-|-10101010101010105-5-5-5-5-5-5-5-||
A|-4-4-4-4-4-4-4-4-1-1-1-1-3-3-3-3-|-8-8-8-8-8-8-8-8-3-3-3-3-3-3-3-3-||
E|---------------------------------|---------------------------------||
 |                                 |
D|-----------6-4-------------------||
A|--------4h6---64-1---------------||

Verse 2
P.M..................................................................|
E|---------------------------------|---------------------------------||
B|---------------------------------|---------------------------------||
G|---------2-2-2-2-3-3-3-3-2-2-2-2-|-----------------6-6-6-6-7-7-7-7-||
D|-3-3-3-3-2-2-2-2-3-3-3-3-2-2-2-2-|-5-5-5-5-3-3-3-3-6-6-6-6-7-7-7-7-||
A|-3-3-3-3-0-0-0-0-1-1-1-1-0-0-0-0-|-5-5-5-5-3-3-3-3-4-4-4-4-5-5-5-5-||
E|-1-1-1-1-------------------------|-3-3-3-3-1-1-1-1-----------------||

E|---------------------------------|---------------------------------||
B|---------------------------------|---------------------------------||
G|-6-6-6-6-6-6-6-6-3-3-3-3-5-5-5-5-|-9/10--9/10--9/10-9/10-9/10~~~---||
D|-6-6-6-6-6-6-6-6-3-3-3-3-5-5-5-5-|-9/10--9/10--9/10-9/10-9/10~~~---||
A|-4-4-4-4-4-4-4-4-1-1-1-1-3-3-3-3-|-7/8---7/8---7/8--7/8--7/8~~~~---||
E|---------------------------------|---------------------------------||
 |                                 |
D|-----------6-4-------------------||
A|--------4h6---64-1---------------||

Chorus 1

E|---------------------------------|---------------------------------||
B|---------------------------------|---------------------------------||
G|-----------------10--------------|-----------------10--------------||
D|-10~----------10-10--------------|-10~----------10-10--------------||
A|-10~----------10-8~~-------------|-10~----------10-8~~-------------||
E|-8~~----------8------------------|-8~~----------8------------------||

E|---------------------------------|---------------------------------||
B|---------------------------------|---------------------------------||
G|-7-7-7-7---------7-7-7-7---------|-7-7-7-7---------3-3-3-3-5-5-5-5-||
D|-7-7-7-7-7-7-7-7-7-7-7-7-7-7-7-7-|-7-7-7-7-7-7-7-7-3-3-3-3-5-5-5-5-||
A|-5-5-5-5-7-7-7-7-5-5-5-5-7-7-7-7-|-5-5-5-5-7-7-7-7-1-1-1-1-3-3-3-3-||
E|---------5-5-5-5---------5-5-5-5-|---------5-5-5-5-----------------||

Verse 3

P.M..................................................................|
E|---------------------------------|---------------------------------||
B|---------------------------------|---------------------------------||
G|---------2-2-2-2-3-3-3-3-2-2-2-2-|-----------------6-6-6-6-7-7-7-7-||
D|-3-3-3-3-2-2-2-2-3-3-3-3-2-2-2-2-|-5-5-5-5-3-3-3-3-6-6-6-6-7-7-7-7-||
A|-3-3-3-3-0-0-0-0-1-1-1-1-0-0-0-0-|-5-5-5-5-3-3-3-3-4-4-4-4-5-5-5-5-||
E|-1-1-1-1-------------------------|-3-3-3-3-1-1-1-1-----------------||

E|---------------------------------|---------------------------------||
B|---------------------------------|---------------------------------||
G|-6-6-6-6-6-6-6-6-3-3-3-3-5-5-5-5-|-101010108-8-8-8-7-7-7-7-7-7-7-7-||
D|-6-6-6-6-6-6-6-6-3-3-3-3-5-5-5-5-|-101010108-8-8-8-7-7-7-7-7-7-7-7-||
A|-4-4-4-4-4-4-4-4-1-1-1-1-3-3-3-3-|-8-8-8-8-6-6-6-6-5-5-5-5-5-5-5-5-||
E|---------------------------------|---------------------------------||
 |                                 |
D|-----------6-4-------------------||
A|--------4h6---64-1---------------||

Chorus 2

e|---------------------------------|---------------------------------||
B|---------------------------------|---------------------------------||
G|-3-3-3-3-3-3-3-3-5-5-5-5-5-5-5-5-|-101010108-8-8-8-7-7-7-7-7-7-7-7-||
D|-3-3-3-3-3-3-3-3-5-5-5-5-5-5-5-5-|-101010108-8-8-8-7-7-7-7-7-7-7-7-||
A|-1-1-1-1-1-1-1-1-3-3-3-3-3-3-3-3-|-8-8-8-8-6-6-6-6-5-5-5-5-5-5-5-5-||
E|---------------------------------|---------------------------------||

e|---------------------------------|---------------------------------||
B|---------------------------------|---------------------------------||
G|-101010108-8-8-8-7-7-7-7-7-7-7-7-|-3-3-3-3-3-3-3-3-3-3-3-3-3-3-3-3-||
D|-101010108-8-8-8-7-7-7-7-7-7-7-7-|-3-3-3-3-3-3-3-3-3-3-3-3-3-3-3-3-||
A|-8-8-8-8-6-6-6-6-5-5-5-5-5-5-5-5-|-1-1-1-1-1-1-1-1-1-1-1-1-1-1-1-1-||
E|---------------------------------|---------------------------------||

e|---------------------------------|---------------------------------||
B|---------------------------------|---------------------------------||
G|-5~~~~---------------------------|(5)------------------------------||
D|-5~~~~---------------------------|(5)------------------------------||
A|-3~~~~---------------------------|(3)------------------------------||
E|---------------------------------|---------------------------------||

e|---------------------------------|---------------------------------||
B|---------------------------------|---------------------------------||
G|-(5)-----------------------------|(5)------------------------------||
D|-(5)-----------------------------|(5)------------------------------||
A|-(3)-----------------------------|(3)------------------------------||
E|---------------------------------|---------------------------------||

Outro 

e|---------------------------------|---------------------------------||
B|---------------------------------|---------------------------------||
G|-6---6-6-6-6-6-6-6---6-6-6-6-6-6-|-8---8-8-8-8-8-8-8--8-8-8--8-8-8-||
D|-6---6-6-6-6-6-6-6---6-6-6-6-6-6-|-8---8-8-8-8-8-8-8--8-8-8--8-8-8-||
A|-4---4-4-4-4-4-4-4---4-4-4-4-4-4-|-6---6-6-6-6-6-6-6--6-6-6--6-6-6-||
E|---------------------------------|---------------------------------||
 |
D|--------------------------6--4---|------------------------8--8-8-8-||
A|----------------------4h6------4-|-6------------------8h10---------||


e|---------------------------------|---------------------------------||
B|---------------------------------|---------------------------------||
G|-10~~~~--------------------------|(10)-----------------------10\---||
D|-10~~~~--------------------------|(10)-----------------------10\---||
A|-8~~~~~--------------------------|(8)------------------------8\\---||
E|---------------------------------|---------------------------------||





Comments


Popular Ramone Joey tabs & chords
Maria Bartiromo Chords
Searching For Something Chords
What A Wonderful World Chords
Maria Bartiromo Tabs
Searching For Something Tabs


Song lyrics



↑ Back to top | Tablatures and chords are parodies/interpretations of the original songs. You may use it for private study, scholarship, research or language learning purposes only
© 2014 AZChords.com Contact us | Privacy policy | DMCA | Add/correct tabs | Request tabs | Top 50 tabs