» » »

Wollt Ihr Das Bedt In Flammen Sehen Bass tabs (ver.1)

Artists:  A B C D E F G H I J K L M N O P Q R S T U V W X Y Z # 

Wollt Ihr Das Bedt In Flammen Sehen Bass tabs (ver.1)

Rammstein
Rating:
0/5 (0 votes)

Hard to play? Try these video lessons and learn fast.
                Turn Your E-String into a C

Main Riff (play it the whole song except for the bridge)
G:-------------------------
D:-------------------------
A:-----------------------3-
C:-(0)-2-(0)-3-(0)-2-(0)---

Bridge (repeat it as many times as you need)
G:----------------
D:----------------
A:----------------
C:-2--3-2--2---0--



OR
If you want to play this song with a standard tuning
You can play it:

Main Riff
G:-----------------------5-
D:-------------------------
A:-(3)-5-(3)-6-(3)-5-(3)---
E:-------------------------

Bridge
G:----------------
D:----------------
A:-5--6-5--5---3--
E:----------------
            
Hard to play? Try these video lessons and learn fast. | Correct




comments powered by Disqus
↑ Back to top | Tablatures and chords are parodies/interpretations of the original songs. You may use it for private study, scholarship, research or language learning purposes only