» » »

Sonne Sun Tabs (ver.1)

Artists:  A B C D E F G H I J K L M N O P Q R S T U V W X Y Z # 

Sonne Sun Tabs (ver.1)

Rammstein
Rating:
0/5 (0 votes)

Hard to play? Try these video lessons and learn fast.
                Track: 3

Tuning: D A D G B E

W/Heavy Distortion

This song really rocks, most probably Ramms+ein’s best.
Also the main riff has to be the best riff in the world...ever!!!

Richard Kruspe-Bernstein plays an ESP M series guitar, through Mesa Boogie amps.

If you like the tab please rate it, thank you.

Intro: 

E|------------------------------|
B|------------------------------|
G|------------------------------|
D|---0-0-6-0-0-0-6-0-0-0-6------|
A|---0-0-6-0-0-0-6-0-0-0-6------|
D|---0-0-6-0-0-0-6-0-0-0-6------|
p.m.[---------------------]


Main Riff:
E|------------------------------------------------------------------------------|
B|------------------------------------------------------------------------------|
G|------------------------------------------------------------------------------|
D|-0----6-0-6-5-0------0----6-0-6-0-------0----6-0-6-5-0--------0---6-0-6-5-5-5-|
A|-0----6-0-6-5-0------0----6-0-6-0-------0----6-0-6-5-0--------0---6-0-6-5-5-5-|
D|-0----6-0-6-5-0------0----6-0-6-0-------0----6-0-6-5-0--------0---6-0-6-5-5-5-|
			  
Riff 2: 
E|------------------------------------------|
B|------------------------------------------|
G|------------------------------------------|
D|-0----6-0-6-5-0------0----6-0-6-0---------|
A|-0----6-0-6-5-0------0----6-0-6-0---------|
D|-0----6-0-6-5-0------0----6-0-6-0---------|

Chorus:
E|------------------------------------------|
B|------------------------------------------|
G|--4-4-4-----------------------5-5-5-------|   
D|--4-4-4-----2-2-2----0-0-0----5-5-5-------|
A|--2-2-2-----2-2-2----0-0-0----3-3-3-------|
D|------------2-2-2----0-0-0----------------|
Repeat twice		
E|------------------------------------------|
B|------------------------------------------|
G|------------4-4-4-------------------------|
D|--2-2-2-----4-4-4----5-5-5----4-4-4-------|
A|--2-2-2-----2-2-2----5-5-5----4-4-4-------|
D|--2-2-2--------------5-5-5----4-4-4-------|
Repeat Twice                          

Playing Order:

Intro (Repeat Until Main Riff Kicks In)
Main Riff x2
Riff 2 x3
Chorus x1
Main Riff x1
Riff 2 x2
Chorus x2
No Guitars
Chorus x2

ENJOY!!!!
            
Hard to play? Try these video lessons and learn fast. | Correct




comments powered by Disqus
↑ Back to top | Tablatures and chords are parodies/interpretations of the original songs. You may use it for private study, scholarship, research or language learning purposes only