>
 >
Shtil

Shtil Guitar Tabs

Rammstein - Shtil chords, tabs, tablatures, lyrics

Guitar lessons | Add/correct | Request | Top 50 tabs Artists:  A B C D E F G H I J K L M N O P Q R S T U V W X Y Z 0-9

Shtil Guitar Tabs – Rammstein

CD, Sheet music, Poster

Do you like Shtil? Share with your friends now
Tabs
Intro
[ With a vibrator or tremolo effect ]
d|-----|
A|-----|
F|*---*|
C|*-2-*|x4
G|--2--|
C|--2--|


Verse 1
[ With a vibrator or tremolo effect ]
1st guitar
d|------------------------------|
A|------------------------------|
F|*----------------------------*|
C|*-2------0------7------2---0-*|x2
G|--2------0------7------2---0--|
C|--2------0------7------2---0--|


2nd guitar
d|------------------------------|
A|------------------------------|
F|*----------------------------*|
C|*-9------7------7------2---7-*|x2
G|--7------5------7------2---5--|
C|----------------7------2------|


Ambient solo at 0:23
[ With vibrator / volume pedal ]
Solo guitar
d|---------------------------------------------|
A|---------------------------------------------|
F|-12-9---11-7---5---9---12-14---7---12-16-17--|
C|--x-x----x-x---x---x----x--x---x----x--x--x--|
G|-10-7----9-5---3---7---10-12---5---10-14-15--|
C|---------------------------------------------|


[ With a vibrator or tremolo effect ]
1st guitar
d|------------------------------|
A|------------------------------|
F|--5-------------2-------------|
C|--5------0------2------3---0--|
G|--3------0------0------3---0--|
C|---------0-------------3---0--|

2nd guitar
d|------------------------------|
A|------------------------------|
F|--5------7------2-------------|
C|--5------7------2------3---0--|
G|--3------5------0------3---0--|
C|-----------------------3---0--|


Verse 2
1st guitar (2nd guitar plays one octave higher)
d|-----------------------------------------------------------------------------------------------|
A|-----------------------------------------------------------------------------------------------|
F|*----------------------------------------------------------------------------------------------|
C|*-5\2-------2-----------2-----------2-----------5\2-------0-----------0-----------0------------|
G|--5\2-------2-----------2-----------2-----------5\2-------0-----------0-----------0------------|
C|--5\2---0---2---2---2---2---2---2---2---2-2-2-2-5\2---0---0---0---0---0---0---0---0---0-0-0-0--|
pm        .       .   .       .   .       . . . .       .       .   .       .   .       .. . .


d|-----------------------------------------------------------------------------------------------|
A|-----------------------------------------------------------------------------------------------|
F|*---------------------------------------------------------------------------------------------*|
C|*-5/7-------7-----------7-----------7-----------5\2-------2-----------2-----------2-----------*|x2
G|--5/7-------7-----------7-----------7-----------5\2-------2-----------2-----------2------------|
C|--5/7---7---7---7---7---7---7---7---7---7-7-7-7-5\2---0---2---2---2---2---2---2---2---2-2-2-2--|
pm        .       .   .       .   .       . . . .       .       .   .       .   .       .. . .


Pre-chorus 2
Solo guitar
[ With WAH ]
d|-------------------------------------------------------------------------------------------------|
A|-------------------------------------------------------------------------------------------------|
F|--9~----------9~---------11~---------12~---------11~---------11~----------7~----------7~---------|
C|--x-----------x-----------x-----------x-----------x-----------x-----------x-----------x----------|
G|--7~----------7~----------9~---------10~----------9~----------9~----------5~----------5~---------|
C|-------------------------------------------------------------------------------------------------|


Rhythm guitar                                 2nd guitar plays these notes one octave higher
d|-------------------------------------------------------------------------------------------------|
A|-------------------------------------------------------------------------------------------------|
F|--5-----------5-----------5-----------5----------------------------------------------------------|
C|--5-----------5-----------5-----------5-----------0-----------0-----------0-----------0----------|
G|--3---3---3---3---3---3---3---3---3---3---3---3---0-----------0-----------0-----------0----------|
C|--------------------------------------------------0---0---0---0---0---0---0---0---0---0---0---0--|
pm      .   .       .   .       .   .       .   .       .   .       .   .       .   .    
  .   .


Solo guitar
[ With WAH ]
d|-------------------------------------------------------------------------------------------------|
A|-------------------------------------------------------------------------------------------------|
F|--9~----------9~---------11~---------12~---------14~---------14~---------19~---------19~---------|
C|--x-----------x-----------x-----------x-----------x-----------x-----------x-----------x----------|
G|--7~----------7~----------9~---------10~---------12~---------12~---------17~---------17~---------|
C|-------------------------------------------------------------------------------------------------|


Rhythm guitar
d|-------------------------------------------------------------------------------------------------|
A|-------------------------------------------------------------------------------------------------|
F|--2-----------2-----------2-----------2----------------------------------------------------------|
C|--2-----------2-----------2-----------2-----------3-----------3-----------0-----------0----------|
G|--0---0---0---0---0---0---0---0---0---0---0---0---3-----------3-----------0-----------0----------|
C|--------------------------------------------------3---3---3---3---3---3---0---0---0---0---0---0--|
pm      .   .       .   .       .   .       .   .       .   .       .   .       .   .    
  .   .


Chorus
Solo guitar (I`m not sure if it tremolo picks or not, but I think so. It`s hard to hear.)
d|-------------------------------------------------------------------------------------------------|
A|------------------------------------------10--12--13----------------------12----------10---------|
F|--9-----------11----------12----------12----------------------11---------------------------------|
C|-------------------------------------------------------------------------------------------------|
G|-------------------------------------------------------------------------------------------------|
C|-------------------------------------------------------------------------------------------------|


Rhythm guitar
d|-------------------------------------------------------------------------------------------------|
A|-------------------------------------------------------------------------------------------------|
F|--------------------------------------------------5-----------5-----------5-----------5----------|
C|--2-----------2-----------2-----------2-----------5-----------5-----------5-----------5----------|
G|--2-----------2-----------2-----------2-----------3---3---3---3---3---3---3---3---3---3---3---3--|
C|--2---2---2---2---2---2---2---2---2---2---2---2--------------------------------------------------|
pm      .   .       .   .       .   .       .   .       .   .       .   .       .   .    
  .   .


Solo guitar
d|-------------------------------------------------------------------------------------------------|
A|------------------------------------------10--12--13----------12----------12---------------------|
F|--9-----------11----------12----------12---------------------------------------------------------|
C|-------------------------------------------------------------------------------------------------|
G|-------------------------------------------------------------------------------------------------|
C|-------------------------------------------------------------------------------------------------|


Rhythm guitar
d|-------------------------------------------------------------------------------------------------|
A|-------------------------------------------------------------------------------------------------|
F|--2-----------2-----------2-----------2-----------4-----------4-----------4-----------4----------|
C|--2-----------2-----------2-----------2-----------4-----------4-----------4-----------4----------|
G|--0---0---0---0---0---0---0---0---0---0---0---0---2---2---2---2---2---2---2---2---2---2---2---2--|
C|-------------------------------------------------------------------------------------------------|
pm      .   .       .   .       .   .       .   .       .   .       .   .       .   .    
  .   .


Solo guitar
d|-------------------------------------------------------------------------------------------------|
A|------------------------------------------10--12--13----------------------12----------10---------|
F|--9-----------11----------12----------12----------------------11---------------------------------|
C|-------------------------------------------------------------------------------------------------|
G|-------------------------------------------------------------------------------------------------|
C|-------------------------------------------------------------------------------------------------|


Rhythm guitar
d|-------------------------------------------------------------------------------------------------|
A|-------------------------------------------------------------------------------------------------|
F|-------------------------------------------------------------------------------------------------|
C|--2-----------2-----------2-----------2-----------0-----------0-----------0-----------0----------|
G|--2-----------2-----------2-----------2-----------0-----------0-----------0-----------0----------|
C|--2---2---2---2---2---2---2---2---2---2---2---2---0---0---0---0---0---0---0---0---0---0---0---0--|
pm      .   .       .   .       .   .       .   .       .   .       .   .       .   .    
  .   .


Solo guitar
d|-------------------------------------------------------------------------------------------------|
A|------------------------------------------10--12--13----------12----------12---------------------|
F|--9-----------11----------12----------12---------------------------------------------------------|
C|-------------------------------------------------------------------------------------------------|
G|-------------------------------------------------------------------------------------------------|
C|-------------------------------------------------------------------------------------------------|


Rhythm guitar
d|-------------------------------------------------------------------------------------------------|
A|-------------------------------------------------------------------------------------------------|
F|--2-----------2-----------2-----------2-----------4-----------4-----------4-----------4----------|
C|--2-----------2-----------2-----------2-----------4-----------4-----------4-----------4----------|
G|--0---0---0---0---0---0---0---0---0---0---0---0---2---2---2---2---2---2---2---2---2---2---2---2--|
C|-------------------------------------------------------------------------------------------------|
pm      .   .       .   .       .   .       .   .       .   .       .   .       .   .    
  .   .


Verse 3
[ With WAH ]
d|---------------------------------------------------------------------------------------------|
A|---------------------------------------------------------------------------------------------|
F|*--------------------------------------------------------------------------------------------|
C|*--------------------------------------------------------------------------------------------|
G|---------------------------------------------------------------------------------------------|
C|--5\2---0---2---2---2---2---2---2---2---2---2---5\2---0---0---0---0---0---0---0---0---0---0--|


d|---------------------------------------------------------------------------------------------|
A|---------------------------------------------------------------------------------------------|
F|*-------------------------------------------------------------------------------------------*|
C|*-------------------------------------------------------------------------------------------*|x2
G|---------------------------------------------------------------------------------------------|
C|--5/7---7---7---7---7---7---7---7---7---7---7---5\2---0---2---2---2---2---2---2---2---2---2--|


Solo (tremolo picking)
1st guitar
d|-------------------------------------------------------------------------------------------|
A|----------------10--------------------------------10-------------------------10---12-------|
F|--9---11---12--------9------12------9---11---12--------11------9---11---12-------------11--|
C|-------------------------------------------------------------------------------------------|
G|-------------------------------------------------------------------------------------------|
C|-------------------------------------------------------------------------------------------|


2nd guitar
d|-------------------------------------------------------------------------------------------|
A|-------------------------------------------------------------------------------------------|
F|--------------------------------------------------------7-8--------------------------------|
C|--2------------------10-------------2--------------------------2-------------------0-------|
G|-------------------------------------------------------------------------------------------|
C|-------------------------------------------------------------------------------------------|


1st guitar
d|--------------------------------------------------------------------------------------------|
A|----------------10-------------------------------10--------------------------------10-------|
F|--9---11---12--------9------8------9---11---12--------9------12------9---11---12--------11--|
C|--------------------------------------------------------------------------------------------|
G|--------------------------------------------------------------------------------------------|
C|--------------------------------------------------------------------------------------------|


2nd guitar
d|-----------------------------------------------------------------------------------------|
A|-----------------------------------------------------------------------------------------|
F|-----------------------------------------------2--------------------------------------8--|
C|--2-------------------------9----2----------------------------2--------------------------|
G|----------------------------------------------------------------------------------2------|
C|-----------------------------------------------------------------------------------------|

Break
[ With a vibrator or tremolo effect ]
d|-----|
A|-----|
F|-----|
C|--2--|
G|--2--|
C|--2--|


1st guitar
d|--------------------------|
A|-------------------10-12--|
F|*-9---11---12---12-------*|
C|*------------------------*|x4
G|--------------------------|
D|--------------------------|


2nd guitar
d|--------------------------|
A|--------------------------|
F|*-------------------2--4-*|
C|*-2----4----5----5-------*|x4
G|--------------------------|
C|--------------------------|





Comments


Popular Rammstein tabs & chords
Der Meister 2 Bass Tabs
Ein Leid Bass Tabs
Haifisch Bass Tabs
Moskau 2 Bass Tabs
Stripped 2 Bass Tabs
Zerstoren 2 Bass Tabs
Mein Herz Brennt Drum Tabs
Alter Mann Tabs
Klavier Tabs
Asche Zu Asche Ukulele


Song lyrics



↑ Back to top | Tablatures and chords are parodies/interpretations of the original songs. You may use it for private study, scholarship, research or language learning purposes only
© 2014 AZChords.com Contact us | Privacy policy | DMCA | Add/correct tabs | Request tabs | Top 50 tabs