» » »

Rammstein, Sehnsucht Tabs (ver.3)

Artists:  A B C D E F G H I J K L M N O P Q R S T U V W X Y Z # 

Sehnsucht Tabs (ver.3)

Rammstein Tabs
Rating:
0/5 (0 votes)
Sehnsucht lessons Tabs too difficult? Try these video lessons and learn fast
                Artist – Rammstein
Song   – Sehnsucht
Album  – Sehnsucht
Tuning – Standard - E-A-D-G-B-E
Last Updated on n/a

Key
Let ring   - ~
Palm Mute  - pm...

Intro:
|-------------------------------------|
|-------------------------------------|
|-------9-8----109---12-----10----9-7-|
|-------9-8----109---12-----10----9-7-|
|-------7-6----8-7---10-----8-----7-5-|
|-0-0-0-----0------0----0-0---0-0-----|
pm.....     .      .    ...   ...

Fill 1:
|-------------------------------------|
|-------------------------------------|
|-------------------------------------|
|-------------------------------------|
|-----------------------------5-4-4---|
|-----------------------------3-2-2---|
pm                            .....

Chorus 1:
|-------------------------------|
|-------------------------------|
|-9-----9-----9---9-----9-------|
|-9-----9-----9---9-----9-------|
|-7-----7-----7---7-----7-5-4-3-|
|---0-0---0-0---0---0-0---3-2-1-|
pm  ...   ...   .   ...   .....

Fill 2:
|---------------------|
|---------------------|
|-9~~~-5~~~-7~~~------|
|-9~~~-5~~~-7~~~-7~~~-|
|-7~~~-3~~~-5~~~-7~~~-|
|----------------5~~~-|

Chorus 2:
|------------------------------------------------------------------|
|------------------------------------------------------------------|
|-----------------------------------5~~~~---5-4-2------------------|
|-2~~~~------------2~~~~------------5~~~~---5-4-2------------------|
|-2~~~~---5-5-4-3--2~~~~---5-5-4-3--3~~~~---3-2-0----------5-5-4-3-|
|-0~~~~---3-3-2-1--0~~~~---3-3-2-1-------------------------3-3-2-1-|
pm        .......          .......                         .......

Outro:
|------------------------------|
|------------------------------|
|-------9-8----109---12-----10-|
|-------9-8----109---12-----10-|
|-------7-6----8-7---10-----8--|
|-0-0-0-----0------0----0-0----|
pm.....     .      .    ...


Song Order:
Intro        x 7 
DON’T PLAY FOR 6 BARS
Intro        x 4
Fill 1       x 1
DON’T PLAY FOR 4 BARS
Chorus       x 8
Intro        x 4
Fill         x 1
Intro        x 2
Fill 2       x 1
DON’T PLAY FOR 8 BARS
Chorus2      x 8
Intro        x 7
Outro        x 1
            
Submit corrections

comments powered by Disqus
↑ Back to top | Rammstein Tabs for Sehnsucht. Lyrics for acoustic guitar and electric guitar. Tablatures and chords are parodies/interpretations of the original songs. You may use it for private study, scholarship, research or language learning purposes only