>
 >
Sehnsucht 1

Sehnsucht 1 Guitar Tabs

Rammstein - Sehnsucht 1 chords, tabs, tablatures, lyrics

Guitar lessons | Add/correct | Request | Top 50 tabs Artists:  A B C D E F G H I J K L M N O P Q R S T U V W X Y Z 0-9

Sehnsucht 1 Guitar Tabs – Rammstein

CD, Sheet music, Poster

Do you like Sehnsucht 1? Share with your friends now
Bass TabsBass Tabs v2Bass Tabs v3TabsTabs v2Tabs v3
Tuning: Standard


x= Palm Mute



(00:14)
|-----------------------------------|
|-----------------------------------|
|-----------------------------------|
|-9-9-9-9-9\8--10\9--12--9-10--10\9-| x6
|-7-7-7-7-7\6---8\7--10--7--8---8\7-|
|-----------------------------------|
  x x x



(01:06)
|-----------------------------------|
|-----------------------------------|
|-----------------------------------|
|-9-9-9-9-9\8--10\9--12--9-10--10\9-| x4
|-7-7-7-7-7\6---8\7--10--7--8---8\7-|
|-----------------------------------|
  x x x



(01:47)                                   (02:11)
|-----------------------------------|     |------------------------|
|-----------------------------------|     |------------------------|
|-----------------------------------|     |------------------------|
|-9-9-9-9-9\8--10\9--12--9-10--10\9-| x7  |-9999-9-99-99-99-9-9999-|
|-7-7-7-7-7\6---8\7--10--7--8---8\7-|     |-7777-7-77-77-77-7-7777-|
|-----------------------------------|     |------------------------|
  x x x



(02:14)
|-----------------------------------|
|-----------------------------------|
|-----------------------------------|
|-9-9-9-9-9\8--10\9--12--9-10--10\9-| x4
|-7-7-7-7-7\6---8\7--10--7--8---8\7-|
|-----------------------------------|



(02:28)
|----------|
|----------|
|----------|
|-5---2----|
|-3-5-0-2~-|
|---3---0~-|



(02:31)
|-----------------------------------|
|-----------------------------------|
|-----------------------------------|
|-9-9-9-9-9\8--10\9--12--9-10--10\9-| x2
|-7-7-7-7-7\6---8\7--10--7--8---8\7-|
|-----------------------------------|



(02:38)
|----------|
|----------|
|----------|
|-5---2----|
|-3-5-0-2~-|
|---3---0~-|



(03:09)
|----------------------------------|
|----------------------------------|
|----------------------------------|
|-9~------9~------5~---------------| x2
|-7~------7~------3~-10-9-7~-------|
|----0000----0000-----8-7-5~--0000-|
     xxxx    xxxx             xxxx



(03:36)67
|-----------------------------------|
|-----------------------------------|
|-----------------------------------|
|-9-9-9-9-9\8--10\9--12--9-10--10\9-| x6
|-7-7-7-7-7\6---8\7--10--7--8---8\7-|
|-----------------------------------|



(03:57)
|---------------------------|
|---------------------------|
|---------------------------|
|-9-9-9-9-9\8--10\9--12--89-|
|-7-7-7-7-7\6---8\7--10--67-|
|---------------------------|
                          x





Comments


Popular Rammstein tabs & chords
Sonne Bass Tabs
Wilder Wein Bass Tabs
Wollt Ihr Das Bett In Flammen Sehen 2 Bass Tabs
Benzin 4 Tabs
Du Riechst So Gut 1 Tabs
Hallelujah Tabs
Herzeleid 2 Tabs
Ich Tu Dir Weh Tabs
Nebel 1 Tabs
Pesnia O Trevojnoi Molodosti Tabs


Song lyrics



↑ Back to top | Tablatures and chords are parodies/interpretations of the original songs. You may use it for private study, scholarship, research or language learning purposes only
© 2014 AZChords.com Contact us | Privacy policy | DMCA | Add/correct tabs | Request tabs | Top 50 tabs