» » »

Seemann Tabs (ver.2)

Artists:  A B C D E F G H I J K L M N O P Q R S T U V W X Y Z # 

Seemann Tabs (ver.2)

Rammstein
Rating:
0/5 (0 votes)

Hard to play? Try these video lessons and learn fast.
                distorted) GUITAR (chorus only)

  trem. picking throughout - [basically, strum as fast as you can]

* the chord is played until the end of the bar ---------------here----->

    |------------------------------------------------------------------|----
    |------------------------------------------------------------------|----
    |------------------------------------------------------------------|----
    |-11---------------------------------------------------------------|----
    |-11---------------------------------------------------------------|----
    |--9---------------------------------------------------------------|----


    |------------------------------------------------------------------|----
    |------------------------------------------------------------------|----
    |------------------------------------------------------------------|----
    |--9---------------------------------------------------------------|----
    |--9---------------------------------------------------------------|----
    |--7---------------------------------------------------------------|----



    |------------------------------------------------------------------|----
    |------------------------------------------------------------------|----
    |------------------------------------------------------------------|----
    |--7---------------------------------------------------------------|----
    |--7---------------------------------------------------------------|----
    |--5---------------------------------------------------------------|----


    |------------------------------------------------------------------|--
    |------------------------------------------------------------------|--
    |------------------------------------------------------------------|--
    |--6---------------------------------------------------------------|--
    |--6---------------------------------------------------------------|--
    |--4---------------------------------------------------------------|--
            
Hard to play? Try these video lessons and learn fast. | Correct




comments powered by Disqus
↑ Back to top | Tablatures and chords are parodies/interpretations of the original songs. You may use it for private study, scholarship, research or language learning purposes only